  0
SECTION
  2
HEADER
  9
$ACADVER
  1
AC1015
  9
$ACADMAINTVER
 70
     6
  9
$DWGCODEPAGE
  3
ANSI_1254
  9
$INSBASE
 10
0.0
 20
0.0
 30
0.0
  9
$EXTMIN
 10
0.0
 20
0.0
 30
0.0
  9
$EXTMAX
 10
279.4
 20
215.9
 30
0.0
  9
$LIMMIN
 10
0.0
 20
0.0
  9
$LIMMAX
 10
279.4
 20
215.9
  9
$ORTHOMODE
 70
     0
  9
$REGENMODE
 70
     1
  9
$FILLMODE
 70
     1
  9
$QTEXTMODE
 70
     0
  9
$MIRRTEXT
 70
     1
  9
$LTSCALE
 40
1.0
  9
$ATTMODE
 70
     1
  9
$TEXTSIZE
 40
3.5
  9
$TRACEWID
 40
1.0
  9
$TEXTSTYLE
  7
Standard
  9
$CLAYER
  8
0
  9
$CELTYPE
  6
ByLayer
  9
$CECOLOR
 62
   256
  9
$CELTSCALE
 40
1.0
  9
$DISPSILH
 70
     0
  9
$DIMSCALE
 40
1.0
  9
$DIMASZ
 40
3.5
  9
$DIMEXO
 40
1.0
  9
$DIMDLI
 40
3.75
  9
$DIMRND
 40
0.0
  9
$DIMDLE
 40
0.0
  9
$DIMEXE
 40
1.0
  9
$DIMTP
 40
0.0
  9
$DIMTM
 40
0.0
  9
$DIMTXT
 40
3.5
  9
$DIMCEN
 40
2.5
  9
$DIMTSZ
 40
0.0
  9
$DIMTOL
 70
     0
  9
$DIMLIM
 70
     0
  9
$DIMTIH
 70
     1
  9
$DIMTOH
 70
     1
  9
$DIMSE1
 70
     0
  9
$DIMSE2
 70
     0
  9
$DIMTAD
 70
     1
  9
$DIMZIN
 70
     0
  9
$DIMBLK
  1

  9
$DIMASO
 70
     1
  9
$DIMSHO
 70
     1
  9
$DIMPOST
  1

  9
$DIMAPOST
  1

  9
$DIMALT
 70
     0
  9
$DIMALTD
 70
     3
  9
$DIMALTF
 40
0.0393700787
  9
$DIMLFAC
 40
1.0
  9
$DIMTOFL
 70
     1
  9
$DIMTVP
 40
0.0
  9
$DIMTIX
 70
     0
  9
$DIMSOXD
 70
     0
  9
$DIMSAH
 70
     0
  9
$DIMBLK1
  1

  9
$DIMBLK2
  1

  9
$DIMSTYLE
  2
ISO-25
  9
$DIMCLRD
 70
     0
  9
$DIMCLRE
 70
     0
  9
$DIMCLRT
 70
     0
  9
$DIMTFAC
 40
1.0
  9
$DIMGAP
 40
1.524
  9
$DIMJUST
 70
     0
  9
$DIMSD1
 70
     0
  9
$DIMSD2
 70
     0
  9
$DIMTOLJ
 70
     0
  9
$DIMTZIN
 70
     0
  9
$DIMALTZ
 70
     0
  9
$DIMALTTZ
 70
     0
  9
$DIMUPT
 70
     0
  9
$DIMDEC
 70
     2
  9
$DIMTDEC
 70
     2
  9
$DIMALTU
 70
     2
  9
$DIMALTTD
 70
     3
  9
$DIMTXSTY
  7
Standard
  9
$DIMAUNIT
 70
     0
  9
$DIMADEC
 70
     2
  9
$DIMALTRND
 40
0.0
  9
$DIMAZIN
 70
     0
  9
$DIMDSEP
 70
    44
  9
$DIMATFIT
 70
     3
  9
$DIMFRAC
 70
     0
  9
$DIMLDRBLK
  1

  9
$DIMLUNIT
 70
     2
  9
$DIMLWD
 70
    -2
  9
$DIMLWE
 70
    -2
  9
$DIMTMOVE
 70
     0
  9
$LUNITS
 70
     2
  9
$LUPREC
 70
     2
  9
$SKETCHINC
 40
1.0
  9
$FILLETRAD
 40
10.0
  9
$AUNITS
 70
     0
  9
$AUPREC
 70
     2
  9
$MENU
  1
.
  9
$ELEVATION
 40
0.0
  9
$PELEVATION
 40
0.0
  9
$THICKNESS
 40
0.0
  9
$LIMCHECK
 70
     0
  9
$CHAMFERA
 40
0.0
  9
$CHAMFERB
 40
0.0
  9
$CHAMFERC
 40
0.0
  9
$CHAMFERD
 40
0.0
  9
$SKPOLY
 70
     0
  9
$TDCREATE
 40
2459935.709168981
  9
$TDUCREATE
 40
2459935.584168981
  9
$TDUPDATE
 40
2459935.709169155
  9
$TDUUPDATE
 40
2459935.584169155
  9
$TDINDWG
 40
0.0000000116
  9
$TDUSRTIMER
 40
0.0000000116
  9
$USRTIMER
 70
     1
  9
$ANGBASE
 50
0.0
  9
$ANGDIR
 70
     0
  9
$PDMODE
 70
     0
  9
$PDSIZE
 40
-1.0
  9
$PLINEWID
 40
0.0
  9
$SPLFRAME
 70
     0
  9
$SPLINETYPE
 70
     6
  9
$SPLINESEGS
 70
     8
  9
$HANDSEED
  5
14D
  9
$SURFTAB1
 70
     6
  9
$SURFTAB2
 70
     6
  9
$SURFTYPE
 70
     6
  9
$SURFU
 70
     6
  9
$SURFV
 70
     6
  9
$UCSBASE
  2

  9
$UCSNAME
  2

  9
$UCSORG
 10
0.0
 20
0.0
 30
0.0
  9
$UCSXDIR
 10
1.0
 20
0.0
 30
0.0
  9
$UCSYDIR
 10
0.0
 20
1.0
 30
0.0
  9
$UCSORTHOREF
  2

  9
$UCSORTHOVIEW
 70
     0
  9
$UCSORGTOP
 10
0.0
 20
0.0
 30
0.0
  9
$UCSORGBOTTOM
 10
0.0
 20
0.0
 30
0.0
  9
$UCSORGLEFT
 10
0.0
 20
0.0
 30
0.0
  9
$UCSORGRIGHT
 10
0.0
 20
0.0
 30
0.0
  9
$UCSORGFRONT
 10
0.0
 20
0.0
 30
0.0
  9
$UCSORGBACK
 10
0.0
 20
0.0
 30
0.0
  9
$PUCSBASE
  2

  9
$PUCSNAME
  2

  9
$PUCSORG
 10
0.0
 20
0.0
 30
0.0
  9
$PUCSXDIR
 10
1.0
 20
0.0
 30
0.0
  9
$PUCSYDIR
 10
0.0
 20
1.0
 30
0.0
  9
$PUCSORTHOREF
  2

  9
$PUCSORTHOVIEW
 70
     0
  9
$PUCSORGTOP
 10
0.0
 20
0.0
 30
0.0
  9
$PUCSORGBOTTOM
 10
0.0
 20
0.0
 30
0.0
  9
$PUCSORGLEFT
 10
0.0
 20
0.0
 30
0.0
  9
$PUCSORGRIGHT
 10
0.0
 20
0.0
 30
0.0
  9
$PUCSORGFRONT
 10
0.0
 20
0.0
 30
0.0
  9
$PUCSORGBACK
 10
0.0
 20
0.0
 30
0.0
  9
$USERI1
 70
     0
  9
$USERI2
 70
     0
  9
$USERI3
 70
     0
  9
$USERI4
 70
     0
  9
$USERI5
 70
     0
  9
$USERR1
 40
0.0
  9
$USERR2
 40
0.0
  9
$USERR3
 40
0.0
  9
$USERR4
 40
0.0
  9
$USERR5
 40
0.0
  9
$WORLDVIEW
 70
     1
  9
$SHADEDGE
 70
     3
  9
$SHADEDIF
 70
    70
  9
$TILEMODE
 70
     1
  9
$MAXACTVP
 70
    64
  9
$PINSBASE
 10
0.0
 20
0.0
 30
0.0
  9
$PLIMCHECK
 70
     0
  9
$PEXTMIN
 10
1.0000000000E+20
 20
1.0000000000E+20
 30
1.0000000000E+20
  9
$PEXTMAX
 10
-1.0000000000E+20
 20
-1.0000000000E+20
 30
-1.0000000000E+20
  9
$PLIMMIN
 10
0.0
 20
0.0
  9
$PLIMMAX
 10
420.0
 20
297.0
  9
$UNITMODE
 70
     0
  9
$VISRETAIN
 70
     1
  9
$PLINEGEN
 70
     0
  9
$PSLTSCALE
 70
     1
  9
$TREEDEPTH
 70
  3020
  9
$CMLSTYLE
  2
Standard
  9
$CMLJUST
 70
     0
  9
$CMLSCALE
 40
20.0
  9
$PROXYGRAPHICS
 70
     1
  9
$MEASUREMENT
 70
     1
  9
$CELWEIGHT
370
    -1
  9
$ENDCAPS
280
     0
  9
$JOINSTYLE
280
     0
  9
$LWDISPLAY
290
     1
  9
$INSUNITS
 70
     4
  9
$HYPERLINKBASE
  1

  9
$STYLESHEET
  1

  9
$XEDIT
290
     1
  9
$CEPSNTYPE
380
     0
  9
$PSTYLEMODE
290
     1
  9
$FINGERPRINTGUID
  2
{6326e3b3-ee9f-41f8-9e5f-6c9c29b569c2}
  9
$VERSIONGUID
  2
{FAEB1C32-E019-11D5-929B-00C0DF256EC4}
  9
$EXTNAMES
290
     1
  9
$PSVPSCALE
 40
0.0
  9
$OLESTARTUP
290
     0
  0
ENDSEC
  0
SECTION
  2
CLASSES
  0
CLASS
  1
ACDBDICTIONARYWDFLT
  2
AcDbDictionaryWithDefault
  3
ObjectDBX Classes
 90
        0
280
     0
281
     0
  0
CLASS
  1
VISUALSTYLE
  2
AcDbVisualStyle
  3
ObjectDBX Classes
 90
     4095
280
     0
281
     0
  0
CLASS
  1
MATERIAL
  2
AcDbMaterial
  3
ObjectDBX Classes
 90
     1153
280
     0
281
     0
  0
CLASS
  1
SCALE
  2
AcDbScale
  3
ObjectDBX Classes
 90
     1153
280
     0
281
     0
  0
CLASS
  1
TABLESTYLE
  2
AcDbTableStyle
  3
ObjectDBX Classes
 90
     4095
280
     0
281
     0
  0
CLASS
  1
MLEADERSTYLE
  2
AcDbMLeaderStyle
  3
ACDB_MLEADERSTYLE_CLASS
 90
     4095
280
     0
281
     0
  0
CLASS
  1
SUN
  2
AcDbSun
  3
SCENEOE
 90
     1153
280
     0
281
     0
  0
CLASS
  1
ACDBPLACEHOLDER
  2
AcDbPlaceHolder
  3
ObjectDBX Classes
 90
        0
280
     0
281
     0
  0
CLASS
  1
LAYOUT
  2
AcDbLayout
  3
ObjectDBX Classes
 90
        0
280
     0
281
     0
  0
ENDSEC
  0
SECTION
  2
TABLES
  0
TABLE
  2
VPORT
  5
8
330
0
100
AcDbSymbolTable
 70
     1
  0
VPORT
  5
29
330
8
100
AcDbSymbolTableRecord
100
AcDbViewportTableRecord
  2
*Active
 70
     0
 10
0.0
 20
0.0
 11
1.0
 21
1.0
 12
139.7
 22
107.95
 13
0.0
 23
0.0
 14
10.0
 24
10.0
 15
10.0
 25
10.0
 16
0.0
 26
0.0
 36
1.0
 17
0.0
 27
0.0
 37
0.0
 40
215.9
 41
1.2941176471
 42
50.0
 43
0.0
 44
0.0
 50
0.0
 51
0.0
 71
     0
 72
  2000
 73
     1
 74
     3
 75
     0
 76
     0
 77
     0
 78
     0
281
     0
 65
     1
110
0.0
120
0.0
130
0.0
111
1.0
121
0.0
131
0.0
112
0.0
122
1.0
132
0.0
 79
     0
146
0.0
  0
ENDTAB
  0
TABLE
  2
LTYPE
  5
5
330
0
100
AcDbSymbolTable
 70
     6
  0
LTYPE
  5
14
330
5
100
AcDbSymbolTableRecord
100
AcDbLinetypeTableRecord
  2
ByBlock
 70
     0
  3

 72
    65
 73
     0
 40
0.0
  0
LTYPE
  5
15
330
5
100
AcDbSymbolTableRecord
100
AcDbLinetypeTableRecord
  2
ByLayer
 70
     0
  3

 72
    65
 73
     0
 40
0.0
  0
LTYPE
  5
16
330
5
100
AcDbSymbolTableRecord
100
AcDbLinetypeTableRecord
  2
Continuous
 70
     0
  3
Solid line
 72
    65
 73
     0
 40
0.0
  0
LTYPE
  5
6E
330
5
100
AcDbSymbolTableRecord
100
AcDbLinetypeTableRecord
  2
HIDDEN
 70
     0
  3
Hidden __ __ __ __ __ __ __ __ __ __ __ __ __ __
 72
    65
 73
     2
 40
1.905
 49
1.27
 74
     0
 49
-0.635
 74
     0
  0
LTYPE
  5
6F
330
5
100
AcDbSymbolTableRecord
100
AcDbLinetypeTableRecord
  2
PHANTOM
 70
     0
  3
Phantom ______  __  __  ______  __  __  ______
 72
    65
 73
     6
 40
12.7
 49
6.35
 74
     0
 49
-1.27
 74
     0
 49
1.27
 74
     0
 49
-1.27
 74
     0
 49
1.27
 74
     0
 49
-1.27
 74
     0
  0
LTYPE
  5
70
330
5
100
AcDbSymbolTableRecord
100
AcDbLinetypeTableRecord
  2
CENTER
 70
     0
  3
Center ____ _ ____ _ ____ _ ____ _ ____ _ ____
 72
    65
 73
     4
 40
10.16
 49
6.35
 74
     0
 49
-1.27
 74
     0
 49
1.27
 74
     0
 49
-1.27
 74
     0
  0
LTYPE
  5
71
330
5
100
AcDbSymbolTableRecord
100
AcDbLinetypeTableRecord
  2
CENTERX2
 70
     0
  3
Center (2x) ________  __  ________  __  _____
 72
    65
 73
     4
 40
20.32
 49
12.7
 74
     0
 49
-2.54
 74
     0
 49
2.54
 74
     0
 49
-2.54
 74
     0
  0
LTYPE
  5
72
330
5
100
AcDbSymbolTableRecord
100
AcDbLinetypeTableRecord
  2
DOT2
 70
     0
  3
Dot (.5x) ........................................
 72
    65
 73
     2
 40
0.635
 49
0.0
 74
     0
 49
-0.635
 74
     0
  0
ENDTAB
  0
TABLE
  2
LAYER
  5
2
330
0
100
AcDbSymbolTable
 70
    17
  0
LAYER
  5
10
330
2
100
AcDbSymbolTableRecord
100
AcDbLayerTableRecord
  2
0
 70
     0
 62
     7
  6
Continuous
370
    -3
390
F
  0
LAYER
  5
73
330
2
100
AcDbSymbolTableRecord
100
AcDbLayerTableRecord
  2
FORMAT
 70
     0
 62
     7
  6
Continuous
370
    -3
390
F
  0
LAYER
  5
74
330
2
100
AcDbSymbolTableRecord
100
AcDbLayerTableRecord
  2
YARDIMCI_GEOMETRI
 70
     0
 62
    -6
  6
Continuous
290
     0
370
    -3
390
F
  0
LAYER
  5
75
330
2
100
AcDbSymbolTableRecord
100
AcDbLayerTableRecord
  2
SAYFA_CERCEVESI
 70
     0
 62
     7
  6
Continuous
370
    25
390
F
  0
LAYER
  5
76
330
2
100
AcDbSymbolTableRecord
100
AcDbLayerTableRecord
  2
ANTET
 70
     0
 62
     7
  6
Continuous
370
    -3
390
F
  0
LAYER
  5
77
330
2
100
AcDbSymbolTableRecord
100
AcDbLayerTableRecord
  2
OLCU
 70
     0
 62
   150
  6
Continuous
370
    -3
390
F
  0
LAYER
  5
78
330
2
100
AcDbSymbolTableRecord
100
AcDbLayerTableRecord
  2
METIN
 70
     0
 62
    96
  6
Continuous
370
    -3
390
F
  0
LAYER
  5
79
330
2
100
AcDbSymbolTableRecord
100
AcDbLayerTableRecord
  2
BALON
 70
     0
 62
     5
  6
Continuous
370
    -3
390
F
  0
LAYER
  5
7A
330
2
100
AcDbSymbolTableRecord
100
AcDbLayerTableRecord
  2
VURGU
 70
     0
 62
     7
  6
Continuous
370
    -3
390
F
  0
LAYER
  5
7B
330
2
100
AcDbSymbolTableRecord
100
AcDbLayerTableRecord
  2
SILIK
 70
     0
 62
     7
  6
Continuous
370
    -3
390
F
  0
LAYER
  5
7C
330
2
100
AcDbSymbolTableRecord
100
AcDbLayerTableRecord
  2
MODEL
 70
     0
 62
     7
  6
Continuous
370
    -3
390
F
  0
LAYER
  5
7D
330
2
100
AcDbSymbolTableRecord
100
AcDbLayerTableRecord
  2
DETAYLANDıRMA
 70
     0
 62
   190
  6
Continuous
370
    -3
390
F
  0
LAYER
  5
7E
330
2
100
AcDbSymbolTableRecord
100
AcDbLayerTableRecord
  2
TOLERANS
 70
     0
 62
   230
  6
Continuous
370
    -3
390
F
  0
LAYER
  5
7F
330
2
100
AcDbSymbolTableRecord
100
AcDbLayerTableRecord
  2
MERKEZ_CIZGILERI
 70
     0
 62
    30
  6
Continuous
370
    -3
390
F
  0
LAYER
  5
80
330
2
100
AcDbSymbolTableRecord
100
AcDbLayerTableRecord
  2
KESIT-DETAY_CIZGILERI
 70
     0
 62
     7
  6
Continuous
370
    -3
390
F
  0
LAYER
  5
81
330
2
100
AcDbSymbolTableRecord
100
AcDbLayerTableRecord
  2
\U+041E\U+0421\U+0415\U+0412\U+042B\U+0415
 70
     0
 62
     7
  6
Continuous
370
    -3
390
F
  0
LAYER
  5
82
330
2
100
AcDbSymbolTableRecord
100
AcDbLayerTableRecord
  2
\U+0412\U+041E\U+0414\U+042F\U+041D\U+042B\U+0415_\U+0417\U+041D\U+0410\U+041A\U+0418
 70
     0
 62
    11
  6
Continuous
370
    -3
390
F
  0
ENDTAB
  0
TABLE
  2
STYLE
  5
3
330
0
100
AcDbSymbolTable
 70
     1
  0
STYLE
  5
11
330
3
100
AcDbSymbolTableRecord
100
AcDbTextStyleTableRecord
  2
Standard
 70
     0
 40
0.0
 41
1.0
 50
0.0
 71
     0
 42
3.5
  3
txt
  4

  0
ENDTAB
  0
TABLE
  2
VIEW
  5
6
330
0
100
AcDbSymbolTable
 70
     0
  0
ENDTAB
  0
TABLE
  2
UCS
  5
7
330
0
100
AcDbSymbolTable
 70
     0
  0
ENDTAB
  0
TABLE
  2
APPID
  5
9
330
0
100
AcDbSymbolTable
 70
     1
  0
APPID
  5
12
330
9
100
AcDbSymbolTableRecord
100
AcDbRegAppTableRecord
  2
ACAD
 70
     0
  0
ENDTAB
  0
TABLE
  2
DIMSTYLE
  5
A
330
0
100
AcDbSymbolTable
 70
     1
100
AcDbDimStyleTable
  0
DIMSTYLE
105
27
330
A
100
AcDbSymbolTableRecord
100
AcDbDimStyleTableRecord
  2
ISO-25
 70
     0
 41
2.5
 42
0.625
 43
3.75
 44
1.25
 73
     0
 74
     0
 77
     1
 78
     8
140
2.5
141
2.5
143
0.0393700787
147
0.625
171
     3
172
     1
178
     0
271
     2
272
     2
274
     3
278
    44
283
     0
284
     8
340
11
  0
ENDTAB
  0
TABLE
  2
BLOCK_RECORD
  5
1
330
0
100
AcDbSymbolTable
 70
     2
  0
BLOCK_RECORD
  5
1F
330
1
100
AcDbSymbolTableRecord
100
AcDbBlockTableRecord
  2
*Model_Space
340
22
  0
BLOCK_RECORD
  5
1B
330
1
100
AcDbSymbolTableRecord
100
AcDbBlockTableRecord
  2
*Paper_Space
340
1E
  0
BLOCK_RECORD
  5
23
330
1
100
AcDbSymbolTableRecord
100
AcDbBlockTableRecord
  2
*Paper_Space0
340
26
  0
BLOCK_RECORD
  5
8C
330
1
100
AcDbSymbolTableRecord
100
AcDbBlockTableRecord
  2
SW_CENTERMARKSYMBOL_0
340
0
102
{BLKREFS
331
97
102
}
  0
ENDTAB
  0
ENDSEC
  0
SECTION
  2
BLOCKS
  0
BLOCK
  5
20
330
1F
100
AcDbEntity
  8
0
100
AcDbBlockBegin
  2
*Model_Space
 70
     0
 10
0.0
 20
0.0
 30
0.0
  3
*Model_Space
  1

  0
ENDBLK
  5
21
330
1F
100
AcDbEntity
  8
0
100
AcDbBlockEnd
  0
BLOCK
  5
1C
330
1B
100
AcDbEntity
 67
     1
  8
0
100
AcDbBlockBegin
  2
*Paper_Space
 70
     0
 10
0.0
 20
0.0
 30
0.0
  3
*Paper_Space
  1

  0
ENDBLK
  5
1D
330
1B
100
AcDbEntity
 67
     1
  8
0
100
AcDbBlockEnd
  0
BLOCK
  5
24
330
23
100
AcDbEntity
  8
0
100
AcDbBlockBegin
  2
*Paper_Space0
 70
     0
 10
0.0
 20
0.0
 30
0.0
  3
*Paper_Space0
  1

  0
ENDBLK
  5
25
330
23
100
AcDbEntity
  8
0
100
AcDbBlockEnd
  0
BLOCK
  5
8D
330
8C
100
AcDbEntity
  8
0
100
AcDbBlockBegin
  2
SW_CENTERMARKSYMBOL_0
 70
     0
 10
0.0
 20
0.0
 30
0.0
  3
SW_CENTERMARKSYMBOL_0
  1

  0
LINE
  5
8F
330
8C
100
AcDbEntity
  8
FORMAT
 62
     0
100
AcDbLine
 10
0.0
 20
0.0
 30
0.0
 11
0.0
 21
2.5
 31
0.0
  0
LINE
  5
90
330
8C
100
AcDbEntity
  8
FORMAT
 62
     0
100
AcDbLine
 10
0.0
 20
0.0
 30
0.0
 11
-2.5
 21
0.0
 31
0.0
  0
LINE
  5
91
330
8C
100
AcDbEntity
  8
FORMAT
 62
     0
100
AcDbLine
 10
0.0
 20
0.0
 30
0.0
 11
0.0
 21
-2.5
 31
0.0
  0
LINE
  5
92
330
8C
100
AcDbEntity
  8
FORMAT
 62
     0
100
AcDbLine
 10
0.0
 20
0.0
 30
0.0
 11
2.5
 21
0.0
 31
0.0
  0
LINE
  5
93
330
8C
100
AcDbEntity
  8
FORMAT
 62
     0
100
AcDbLine
 10
0.0
 20
5.0
 30
0.0
 11
0.0
 21
15.0
 31
0.0
  0
LINE
  5
94
330
8C
100
AcDbEntity
  8
FORMAT
 62
     0
100
AcDbLine
 10
-5.0
 20
0.0
 30
0.0
 11
-15.0
 21
0.0
 31
0.0
  0
LINE
  5
95
330
8C
100
AcDbEntity
  8
FORMAT
 62
     0
100
AcDbLine
 10
0.0
 20
-5.0
 30
0.0
 11
0.0
 21
-15.0
 31
0.0
  0
LINE
  5
96
330
8C
100
AcDbEntity
  8
FORMAT
 62
     0
100
AcDbLine
 10
5.0
 20
0.0
 30
0.0
 11
15.0
 21
0.0
 31
0.0
  0
ENDBLK
  5
8E
330
8C
100
AcDbEntity
  8
0
100
AcDbBlockEnd
  0
ENDSEC
  0
SECTION
  2
ENTITIES
  0
CIRCLE
  5
83
330
1F
100
AcDbEntity
  8
0
  6
Continuous
 62
     7
370
    25
100
AcDbCircle
 10
139.8323425481
 20
108.7440552885
 30
0.0
 40
9.500000000000028
  0
CIRCLE
  5
84
330
1F
100
AcDbEntity
  8
0
  6
Continuous
 62
     7
370
    25
100
AcDbCircle
 10
139.8323425481
 20
108.7440552885
 30
0.0
 40
12.50000000000001
  0
CIRCLE
  5
85
330
1F
100
AcDbEntity
  8
0
  6
Continuous
 62
     7
370
    25
100
AcDbCircle
 10
139.8323425481
 20
108.7440552885
 30
0.0
 40
8.599999999999994
  0
LINE
  5
86
330
1F
100
AcDbEntity
  8
0
  6
Continuous
 62
     7
370
    25
100
AcDbLine
 10
139.8323425481
 20
87.9594455976
 30
0.0
 11
121.8323425481
 21
98.351750443
 31
0.0
  0
LINE
  5
87
330
1F
100
AcDbEntity
  8
0
  6
Continuous
 62
     7
370
    25
100
AcDbLine
 10
121.8323425481
 20
98.351750443
 30
0.0
 11
121.8323425481
 21
119.1363601339
 31
0.0
  0
LINE
  5
88
330
1F
100
AcDbEntity
  8
0
  6
Continuous
 62
     7
370
    25
100
AcDbLine
 10
121.8323425481
 20
119.1363601339
 30
0.0
 11
139.8323425481
 21
129.5286649793
 31
0.0
  0
LINE
  5
89
330
1F
100
AcDbEntity
  8
0
  6
Continuous
 62
     7
370
    25
100
AcDbLine
 10
139.8323425481
 20
129.5286649793
 30
0.0
 11
157.8323425481
 21
119.1363601339
 31
0.0
  0
LINE
  5
8A
330
1F
100
AcDbEntity
  8
0
  6
Continuous
 62
     7
370
    25
100
AcDbLine
 10
157.8323425481
 20
119.1363601339
 30
0.0
 11
157.8323425481
 21
98.351750443
 31
0.0
  0
LINE
  5
8B
330
1F
100
AcDbEntity
  8
0
  6
Continuous
 62
     7
370
    25
100
AcDbLine
 10
157.8323425481
 20
98.351750443
 30
0.0
 11
139.8323425481
 21
87.9594455976
 31
0.0
  0
INSERT
  5
97
330
1F
100
AcDbEntity
  8
FORMAT
 62
     7
100
AcDbBlockReference
  2
SW_CENTERMARKSYMBOL_0
 10
139.8323425481
 20
108.7440552885
 30
0.0
  0
LINE
  5
98
330
1F
100
AcDbEntity
  8
0
  6
Continuous
 62
     7
370
    25
100
AcDbLine
 10
153.0523425481
 20
137.137405077
 30
0.0
 11
153.0523425481
 21
137.337405077
 31
0.0
  0
LINE
  5
99
330
1F
100
AcDbEntity
  8
0
  6
Continuous
 62
     7
370
    25
100
AcDbLine
 10
126.6123425481
 20
137.337405077
 30
0.0
 11
126.6123425481
 21
137.137405077
 31
0.0
  0
LINE
  5
9A
330
1F
100
AcDbEntity
  8
0
  6
Continuous
 62
     7
370
    25
100
AcDbLine
 10
153.0523425481
 20
137.337405077
 30
0.0
 11
151.3202917405
 21
138.337405077
 31
0.0
  0
LINE
  5
9B
330
1F
100
AcDbEntity
  8
0
  6
Continuous
 62
     7
370
    25
100
AcDbLine
 10
128.3443933556
 20
138.337405077
 30
0.0
 11
126.6123425481
 21
137.337405077
 31
0.0
  0
LINE
  5
9C
330
1F
100
AcDbEntity
  8
0
  6
Continuous
 62
     7
370
    25
100
AcDbLine
 10
126.6123425481
 20
139.337405077
 30
0.0
 11
128.3443933556
 21
138.337405077
 31
0.0
  0
LINE
  5
9D
330
1F
100
AcDbEntity
  8
0
  6
Continuous
 62
     7
370
    25
100
AcDbLine
 10
151.3202917405
 20
138.337405077
 30
0.0
 11
153.0523425481
 21
139.337405077
 31
0.0
  0
LINE
  5
9E
330
1F
100
AcDbEntity
  8
0
  6
Continuous
 62
     7
370
    25
100
AcDbLine
 10
153.0523425481
 20
139.337405077
 30
0.0
 11
151.3202917405
 21
140.337405077
 31
0.0
  0
LINE
  5
9F
330
1F
100
AcDbEntity
  8
0
  6
Continuous
 62
     7
370
    25
100
AcDbLine
 10
128.3443933556
 20
140.337405077
 30
0.0
 11
126.6123425481
 21
139.337405077
 31
0.0
  0
LINE
  5
A0
330
1F
100
AcDbEntity
  8
0
  6
Continuous
 62
     7
370
    25
100
AcDbLine
 10
126.6123425481
 20
141.337405077
 30
0.0
 11
128.3443933556
 21
140.337405077
 31
0.0
  0
LINE
  5
A1
330
1F
100
AcDbEntity
  8
0
  6
Continuous
 62
     7
370
    25
100
AcDbLine
 10
151.3202917405
 20
140.337405077
 30
0.0
 11
153.0523425481
 21
141.337405077
 31
0.0
  0
LINE
  5
A2
330
1F
100
AcDbEntity
  8
0
  6
Continuous
 62
     7
370
    25
100
AcDbLine
 10
153.0523425481
 20
141.337405077
 30
0.0
 11
151.3202917405
 21
142.337405077
 31
0.0
  0
LINE
  5
A3
330
1F
100
AcDbEntity
  8
0
  6
Continuous
 62
     7
370
    25
100
AcDbLine
 10
128.3443933556
 20
142.337405077
 30
0.0
 11
126.6123425481
 21
141.337405077
 31
0.0
  0
LINE
  5
A4
330
1F
100
AcDbEntity
  8
0
  6
Continuous
 62
     7
370
    25
100
AcDbLine
 10
126.6123425481
 20
143.337405077
 30
0.0
 11
128.3443933556
 21
142.337405077
 31
0.0
  0
LINE
  5
A5
330
1F
100
AcDbEntity
  8
0
  6
Continuous
 62
     7
370
    25
100
AcDbLine
 10
151.3202917405
 20
142.337405077
 30
0.0
 11
153.0523425481
 21
143.337405077
 31
0.0
  0
LINE
  5
A6
330
1F
100
AcDbEntity
  8
0
  6
Continuous
 62
     7
370
    25
100
AcDbLine
 10
153.0523425481
 20
143.337405077
 30
0.0
 11
153.0523425481
 21
155.137405077
 31
0.0
  0
LINE
  5
A7
330
1F
100
AcDbEntity
  8
0
  6
Continuous
 62
     7
370
    25
100
AcDbLine
 10
126.6123425481
 20
155.137405077
 30
0.0
 11
126.6123425481
 21
143.337405077
 31
0.0
  0
LINE
  5
A8
330
1F
100
AcDbEntity
  8
0
  6
Continuous
 62
     7
370
    25
100
AcDbLine
 10
152.3323425481
 20
169.137405077
 30
0.0
 11
152.3323425481
 21
202.637405077
 31
0.0
  0
LINE
  5
A9
330
1F
100
AcDbEntity
  8
0
  6
Continuous
 62
     7
370
    25
100
AcDbLine
 10
127.3323425481
 20
202.637405077
 30
0.0
 11
127.3323425481
 21
169.137405077
 31
0.0
  0
LINE
  5
AA
330
1F
100
AcDbEntity
  8
0
  6
Continuous
 62
     7
370
    25
100
AcDbLine
 10
139.8323425481
 20
169.137405077
 30
0.0
 11
139.8323425481
 21
155.137405077
 31
0.0
  0
LINE
  5
AB
330
1F
100
AcDbEntity
  8
0
  6
Continuous
 62
     7
370
    25
100
AcDbLine
 10
157.8323425481
 20
169.137405077
 30
0.0
 11
139.8323425481
 21
169.137405077
 31
0.0
  0
LINE
  5
AC
330
1F
100
AcDbEntity
  8
0
  6
Continuous
 62
     7
370
    25
100
AcDbLine
 10
157.8323425481
 20
169.137405077
 30
0.0
 11
157.8323425481
 21
155.137405077
 31
0.0
  0
LINE
  5
AD
330
1F
100
AcDbEntity
  8
0
  6
Continuous
 62
     7
370
    25
100
AcDbLine
 10
139.8323425481
 20
155.137405077
 30
0.0
 11
157.8323425481
 21
155.137405077
 31
0.0
  0
LINE
  5
AE
330
1F
100
AcDbEntity
  8
0
  6
Continuous
 62
     7
370
    25
100
AcDbLine
 10
121.8323425481
 20
169.137405077
 30
0.0
 11
121.8323425481
 21
155.137405077
 31
0.0
  0
LINE
  5
AF
330
1F
100
AcDbEntity
  8
0
  6
Continuous
 62
     7
370
    25
100
AcDbLine
 10
139.8323425481
 20
169.137405077
 30
0.0
 11
121.8323425481
 21
169.137405077
 31
0.0
  0
LINE
  5
B0
330
1F
100
AcDbEntity
  8
0
  6
Continuous
 62
     7
370
    25
100
AcDbLine
 10
121.8323425481
 20
155.137405077
 30
0.0
 11
139.8323425481
 21
155.137405077
 31
0.0
  0
LINE
  5
B1
330
1F
100
AcDbEntity
  8
0
  6
Continuous
 62
     7
370
    25
100
AcDbLine
 10
153.0523425481
 20
137.337405077
 30
0.0
 11
126.6123425481
 21
137.337405077
 31
0.0
  0
LINE
  5
B2
330
1F
100
AcDbEntity
  8
0
  6
Continuous
 62
     7
370
    25
100
AcDbLine
 10
153.0523425481
 20
137.137405077
 30
0.0
 11
126.6123425481
 21
137.137405077
 31
0.0
  0
LINE
  5
B3
330
1F
100
AcDbEntity
  8
0
  6
Continuous
 62
     7
370
    25
100
AcDbLine
 10
151.3202917405
 20
138.337405077
 30
0.0
 11
128.3443933556
 21
138.337405077
 31
0.0
  0
LINE
  5
B4
330
1F
100
AcDbEntity
  8
0
  6
Continuous
 62
     7
370
    25
100
AcDbLine
 10
153.0523425481
 20
139.337405077
 30
0.0
 11
126.6123425481
 21
139.337405077
 31
0.0
  0
LINE
  5
B5
330
1F
100
AcDbEntity
  8
0
  6
Continuous
 62
     7
370
    25
100
AcDbLine
 10
151.3202917405
 20
140.337405077
 30
0.0
 11
128.3443933556
 21
140.337405077
 31
0.0
  0
LINE
  5
B6
330
1F
100
AcDbEntity
  8
0
  6
Continuous
 62
     7
370
    25
100
AcDbLine
 10
153.0523425481
 20
141.337405077
 30
0.0
 11
126.6123425481
 21
141.337405077
 31
0.0
  0
LINE
  5
B7
330
1F
100
AcDbEntity
  8
0
  6
Continuous
 62
     7
370
    25
100
AcDbLine
 10
151.3202917405
 20
142.337405077
 30
0.0
 11
128.3443933556
 21
142.337405077
 31
0.0
  0
LINE
  5
B8
330
1F
100
AcDbEntity
  8
0
  6
Continuous
 62
     7
370
    25
100
AcDbLine
 10
153.0523425481
 20
143.337405077
 30
0.0
 11
126.6123425481
 21
143.337405077
 31
0.0
  0
LINE
  5
B9
330
1F
100
AcDbEntity
  8
0
  6
Continuous
 62
     7
370
    25
100
AcDbLine
 10
152.3323425481
 20
202.637405077
 30
0.0
 11
127.3323425481
 21
202.637405077
 31
0.0
  0
LINE
  5
BA
330
1F
100
AcDbEntity
  8
0
  6
Continuous
 62
     7
370
    25
100
AcDbLine
 10
193.319244041
 20
95.5240552885
 30
0.0
 11
194.319244041
 21
97.256106096
 31
0.0
  0
LINE
  5
BB
330
1F
100
AcDbEntity
  8
0
  6
Continuous
 62
     7
370
    25
100
AcDbLine
 10
194.319244041
 20
120.2320044809
 30
0.0
 11
193.319244041
 21
121.9640552885
 31
0.0
  0
LINE
  5
BC
330
1F
100
AcDbEntity
  8
0
  6
Continuous
 62
     7
370
    25
100
AcDbLine
 10
193.119244041
 20
95.5240552885
 30
0.0
 11
193.319244041
 21
95.5240552885
 31
0.0
  0
LINE
  5
BD
330
1F
100
AcDbEntity
  8
0
  6
Continuous
 62
     7
370
    25
100
AcDbLine
 10
193.319244041
 20
121.9640552885
 30
0.0
 11
193.119244041
 21
121.9640552885
 31
0.0
  0
LINE
  5
BE
330
1F
100
AcDbEntity
  8
0
  6
Continuous
 62
     7
370
    25
100
AcDbLine
 10
195.319244041
 20
121.9640552885
 30
0.0
 11
194.319244041
 21
120.2320044809
 31
0.0
  0
LINE
  5
BF
330
1F
100
AcDbEntity
  8
0
  6
Continuous
 62
     7
370
    25
100
AcDbLine
 10
194.319244041
 20
97.256106096
 30
0.0
 11
195.319244041
 21
95.5240552885
 31
0.0
  0
LINE
  5
C0
330
1F
100
AcDbEntity
  8
0
  6
Continuous
 62
     7
370
    25
100
AcDbLine
 10
195.319244041
 20
95.5240552885
 30
0.0
 11
196.319244041
 21
97.256106096
 31
0.0
  0
LINE
  5
C1
330
1F
100
AcDbEntity
  8
0
  6
Continuous
 62
     7
370
    25
100
AcDbLine
 10
196.319244041
 20
120.2320044809
 30
0.0
 11
195.319244041
 21
121.9640552885
 31
0.0
  0
LINE
  5
C2
330
1F
100
AcDbEntity
  8
0
  6
Continuous
 62
     7
370
    25
100
AcDbLine
 10
197.319244041
 20
121.9640552885
 30
0.0
 11
196.319244041
 21
120.2320044809
 31
0.0
  0
LINE
  5
C3
330
1F
100
AcDbEntity
  8
0
  6
Continuous
 62
     7
370
    25
100
AcDbLine
 10
196.319244041
 20
97.256106096
 30
0.0
 11
197.319244041
 21
95.5240552885
 31
0.0
  0
LINE
  5
C4
330
1F
100
AcDbEntity
  8
0
  6
Continuous
 62
     7
370
    25
100
AcDbLine
 10
197.319244041
 20
95.5240552885
 30
0.0
 11
198.319244041
 21
97.256106096
 31
0.0
  0
LINE
  5
C5
330
1F
100
AcDbEntity
  8
0
  6
Continuous
 62
     7
370
    25
100
AcDbLine
 10
198.319244041
 20
120.2320044809
 30
0.0
 11
197.319244041
 21
121.9640552885
 31
0.0
  0
LINE
  5
C6
330
1F
100
AcDbEntity
  8
0
  6
Continuous
 62
     7
370
    25
100
AcDbLine
 10
199.319244041
 20
121.9640552885
 30
0.0
 11
198.319244041
 21
120.2320044809
 31
0.0
  0
LINE
  5
C7
330
1F
100
AcDbEntity
  8
0
  6
Continuous
 62
     7
370
    25
100
AcDbLine
 10
198.319244041
 20
97.256106096
 30
0.0
 11
199.319244041
 21
95.5240552885
 31
0.0
  0
LINE
  5
C8
330
1F
100
AcDbEntity
  8
0
  6
Continuous
 62
     7
370
    25
100
AcDbLine
 10
199.319244041
 20
95.5240552885
 30
0.0
 11
211.119244041
 21
95.5240552885
 31
0.0
  0
LINE
  5
C9
330
1F
100
AcDbEntity
  8
0
  6
Continuous
 62
     7
370
    25
100
AcDbLine
 10
211.119244041
 20
121.9640552885
 30
0.0
 11
199.319244041
 21
121.9640552885
 31
0.0
  0
LINE
  5
CA
330
1F
100
AcDbEntity
  8
0
  6
Continuous
 62
     7
370
    25
100
AcDbLine
 10
225.119244041
 20
96.2440552885
 30
0.0
 11
258.619244041
 21
96.2440552885
 31
0.0
  0
LINE
  5
CB
330
1F
100
AcDbEntity
  8
0
  6
Continuous
 62
     7
370
    25
100
AcDbLine
 10
258.619244041
 20
121.2440552885
 30
0.0
 11
225.119244041
 21
121.2440552885
 31
0.0
  0
LINE
  5
CC
330
1F
100
AcDbEntity
  8
0
  6
Continuous
 62
     7
370
    25
100
AcDbLine
 10
225.119244041
 20
98.351750443
 30
0.0
 11
211.119244041
 21
98.351750443
 31
0.0
  0
LINE
  5
CD
330
1F
100
AcDbEntity
  8
0
  6
Continuous
 62
     7
370
    25
100
AcDbLine
 10
225.119244041
 20
87.9594455976
 30
0.0
 11
225.119244041
 21
98.351750443
 31
0.0
  0
LINE
  5
CE
330
1F
100
AcDbEntity
  8
0
  6
Continuous
 62
     7
370
    25
100
AcDbLine
 10
225.119244041
 20
87.9594455976
 30
0.0
 11
211.119244041
 21
87.9594455976
 31
0.0
  0
LINE
  5
CF
330
1F
100
AcDbEntity
  8
0
  6
Continuous
 62
     7
370
    25
100
AcDbLine
 10
211.119244041
 20
98.351750443
 30
0.0
 11
211.119244041
 21
87.9594455976
 31
0.0
  0
LINE
  5
D0
330
1F
100
AcDbEntity
  8
0
  6
Continuous
 62
     7
370
    25
100
AcDbLine
 10
225.119244041
 20
119.1363601339
 30
0.0
 11
211.119244041
 21
119.1363601339
 31
0.0
  0
LINE
  5
D1
330
1F
100
AcDbEntity
  8
0
  6
Continuous
 62
     7
370
    25
100
AcDbLine
 10
225.119244041
 20
98.351750443
 30
0.0
 11
225.119244041
 21
119.1363601339
 31
0.0
  0
LINE
  5
D2
330
1F
100
AcDbEntity
  8
0
  6
Continuous
 62
     7
370
    25
100
AcDbLine
 10
211.119244041
 20
119.1363601339
 30
0.0
 11
211.119244041
 21
98.351750443
 31
0.0
  0
LINE
  5
D3
330
1F
100
AcDbEntity
  8
0
  6
Continuous
 62
     7
370
    25
100
AcDbLine
 10
225.119244041
 20
129.5286649793
 30
0.0
 11
211.119244041
 21
129.5286649793
 31
0.0
  0
LINE
  5
D4
330
1F
100
AcDbEntity
  8
0
  6
Continuous
 62
     7
370
    25
100
AcDbLine
 10
225.119244041
 20
119.1363601339
 30
0.0
 11
225.119244041
 21
129.5286649793
 31
0.0
  0
LINE
  5
D5
330
1F
100
AcDbEntity
  8
0
  6
Continuous
 62
     7
370
    25
100
AcDbLine
 10
211.119244041
 20
129.5286649793
 30
0.0
 11
211.119244041
 21
119.1363601339
 31
0.0
  0
LINE
  5
D6
330
1F
100
AcDbEntity
  8
0
  6
Continuous
 62
     7
370
    25
100
AcDbLine
 10
194.319244041
 20
108.7440552885
 30
0.0
 11
194.319244041
 21
120.2320044809
 31
0.0
  0
LINE
  5
D7
330
1F
100
AcDbEntity
  8
0
  6
Continuous
 62
     7
370
    25
100
AcDbLine
 10
194.319244041
 20
97.256106096
 30
0.0
 11
194.319244041
 21
108.7440552885
 31
0.0
  0
LINE
  5
D8
330
1F
100
AcDbEntity
  8
0
  6
Continuous
 62
     7
370
    25
100
AcDbLine
 10
193.319244041
 20
108.7440552885
 30
0.0
 11
193.319244041
 21
121.9640552885
 31
0.0
  0
LINE
  5
D9
330
1F
100
AcDbEntity
  8
0
  6
Continuous
 62
     7
370
    25
100
AcDbLine
 10
193.319244041
 20
95.5240552885
 30
0.0
 11
193.319244041
 21
108.7440552885
 31
0.0
  0
LINE
  5
DA
330
1F
100
AcDbEntity
  8
0
  6
Continuous
 62
     7
370
    25
100
AcDbLine
 10
193.119244041
 20
108.7440552885
 30
0.0
 11
193.119244041
 21
121.9640552885
 31
0.0
  0
LINE
  5
DB
330
1F
100
AcDbEntity
  8
0
  6
Continuous
 62
     7
370
    25
100
AcDbLine
 10
193.119244041
 20
95.5240552885
 30
0.0
 11
193.119244041
 21
108.7440552885
 31
0.0
  0
LINE
  5
DC
330
1F
100
AcDbEntity
  8
0
  6
Continuous
 62
     7
370
    25
100
AcDbLine
 10
195.319244041
 20
108.7440552885
 30
0.0
 11
195.319244041
 21
121.9640552885
 31
0.0
  0
LINE
  5
DD
330
1F
100
AcDbEntity
  8
0
  6
Continuous
 62
     7
370
    25
100
AcDbLine
 10
195.319244041
 20
95.5240552885
 30
0.0
 11
195.319244041
 21
108.7440552885
 31
0.0
  0
LINE
  5
DE
330
1F
100
AcDbEntity
  8
0
  6
Continuous
 62
     7
370
    25
100
AcDbLine
 10
196.319244041
 20
108.7440552885
 30
0.0
 11
196.319244041
 21
120.2320044809
 31
0.0
  0
LINE
  5
DF
330
1F
100
AcDbEntity
  8
0
  6
Continuous
 62
     7
370
    25
100
AcDbLine
 10
196.319244041
 20
97.256106096
 30
0.0
 11
196.319244041
 21
108.7440552885
 31
0.0
  0
LINE
  5
E0
330
1F
100
AcDbEntity
  8
0
  6
Continuous
 62
     7
370
    25
100
AcDbLine
 10
197.319244041
 20
108.7440552885
 30
0.0
 11
197.319244041
 21
121.9640552885
 31
0.0
  0
LINE
  5
E1
330
1F
100
AcDbEntity
  8
0
  6
Continuous
 62
     7
370
    25
100
AcDbLine
 10
197.319244041
 20
95.5240552885
 30
0.0
 11
197.319244041
 21
108.7440552885
 31
0.0
  0
LINE
  5
E2
330
1F
100
AcDbEntity
  8
0
  6
Continuous
 62
     7
370
    25
100
AcDbLine
 10
198.319244041
 20
108.7440552885
 30
0.0
 11
198.319244041
 21
120.2320044809
 31
0.0
  0
LINE
  5
E3
330
1F
100
AcDbEntity
  8
0
  6
Continuous
 62
     7
370
    25
100
AcDbLine
 10
198.319244041
 20
97.256106096
 30
0.0
 11
198.319244041
 21
108.7440552885
 31
0.0
  0
LINE
  5
E4
330
1F
100
AcDbEntity
  8
0
  6
Continuous
 62
     7
370
    25
100
AcDbLine
 10
199.319244041
 20
108.7440552885
 30
0.0
 11
199.319244041
 21
121.9640552885
 31
0.0
  0
LINE
  5
E5
330
1F
100
AcDbEntity
  8
0
  6
Continuous
 62
     7
370
    25
100
AcDbLine
 10
199.319244041
 20
95.5240552885
 30
0.0
 11
199.319244041
 21
108.7440552885
 31
0.0
  0
LINE
  5
E6
330
1F
100
AcDbEntity
  8
0
  6
Continuous
 62
     7
370
    25
100
AcDbLine
 10
258.619244041
 20
108.7440552885
 30
0.0
 11
258.619244041
 21
121.2440552885
 31
0.0
  0
LINE
  5
E7
330
1F
100
AcDbEntity
  8
0
  6
Continuous
 62
     7
370
    25
100
AcDbLine
 10
258.619244041
 20
96.2440552885
 30
0.0
 11
258.619244041
 21
108.7440552885
 31
0.0
  0
LINE
  5
E8
330
1F
100
AcDbEntity
  8
0
  6
Continuous
 62
     7
370
    25
100
AcDbLine
 10
86.6317308965
 20
121.9640552885
 30
0.0
 11
86.4317308965
 21
121.9640552885
 31
0.0
  0
LINE
  5
E9
330
1F
100
AcDbEntity
  8
0
  6
Continuous
 62
     7
370
    25
100
AcDbLine
 10
86.4317308965
 20
95.5240552885
 30
0.0
 11
86.6317308965
 21
95.5240552885
 31
0.0
  0
LINE
  5
EA
330
1F
100
AcDbEntity
  8
0
  6
Continuous
 62
     7
370
    25
100
AcDbLine
 10
86.4317308965
 20
121.9640552885
 30
0.0
 11
85.4317308965
 21
120.2320044809
 31
0.0
  0
LINE
  5
EB
330
1F
100
AcDbEntity
  8
0
  6
Continuous
 62
     7
370
    25
100
AcDbLine
 10
85.4317308965
 20
97.256106096
 30
0.0
 11
86.4317308965
 21
95.5240552885
 31
0.0
  0
LINE
  5
EC
330
1F
100
AcDbEntity
  8
0
  6
Continuous
 62
     7
370
    25
100
AcDbLine
 10
84.4317308965
 20
95.5240552885
 30
0.0
 11
85.4317308965
 21
97.256106096
 31
0.0
  0
LINE
  5
ED
330
1F
100
AcDbEntity
  8
0
  6
Continuous
 62
     7
370
    25
100
AcDbLine
 10
85.4317308965
 20
120.2320044809
 30
0.0
 11
84.4317308965
 21
121.9640552885
 31
0.0
  0
LINE
  5
EE
330
1F
100
AcDbEntity
  8
0
  6
Continuous
 62
     7
370
    25
100
AcDbLine
 10
84.4317308965
 20
121.9640552885
 30
0.0
 11
83.4317308965
 21
120.2320044809
 31
0.0
  0
LINE
  5
EF
330
1F
100
AcDbEntity
  8
0
  6
Continuous
 62
     7
370
    25
100
AcDbLine
 10
83.4317308965
 20
97.256106096
 30
0.0
 11
84.4317308965
 21
95.5240552885
 31
0.0
  0
LINE
  5
F0
330
1F
100
AcDbEntity
  8
0
  6
Continuous
 62
     7
370
    25
100
AcDbLine
 10
82.4317308965
 20
95.5240552885
 30
0.0
 11
83.4317308965
 21
97.256106096
 31
0.0
  0
LINE
  5
F1
330
1F
100
AcDbEntity
  8
0
  6
Continuous
 62
     7
370
    25
100
AcDbLine
 10
83.4317308965
 20
120.2320044809
 30
0.0
 11
82.4317308965
 21
121.9640552885
 31
0.0
  0
LINE
  5
F2
330
1F
100
AcDbEntity
  8
0
  6
Continuous
 62
     7
370
    25
100
AcDbLine
 10
82.4317308965
 20
121.9640552885
 30
0.0
 11
81.4317308965
 21
120.2320044809
 31
0.0
  0
LINE
  5
F3
330
1F
100
AcDbEntity
  8
0
  6
Continuous
 62
     7
370
    25
100
AcDbLine
 10
81.4317308965
 20
97.256106096
 30
0.0
 11
82.4317308965
 21
95.5240552885
 31
0.0
  0
LINE
  5
F4
330
1F
100
AcDbEntity
  8
0
  6
Continuous
 62
     7
370
    25
100
AcDbLine
 10
80.4317308965
 20
95.5240552885
 30
0.0
 11
81.4317308965
 21
97.256106096
 31
0.0
  0
LINE
  5
F5
330
1F
100
AcDbEntity
  8
0
  6
Continuous
 62
     7
370
    25
100
AcDbLine
 10
81.4317308965
 20
120.2320044809
 30
0.0
 11
80.4317308965
 21
121.9640552885
 31
0.0
  0
LINE
  5
F6
330
1F
100
AcDbEntity
  8
0
  6
Continuous
 62
     7
370
    25
100
AcDbLine
 10
80.4317308965
 20
121.9640552885
 30
0.0
 11
68.6317308965
 21
121.9640552885
 31
0.0
  0
LINE
  5
F7
330
1F
100
AcDbEntity
  8
0
  6
Continuous
 62
     7
370
    25
100
AcDbLine
 10
68.6317308965
 20
95.5240552885
 30
0.0
 11
80.4317308965
 21
95.5240552885
 31
0.0
  0
LINE
  5
F8
330
1F
100
AcDbEntity
  8
0
  6
Continuous
 62
     7
370
    25
100
AcDbLine
 10
54.6317308965
 20
121.2440552885
 30
0.0
 11
21.1317308965
 21
121.2440552885
 31
0.0
  0
LINE
  5
F9
330
1F
100
AcDbEntity
  8
0
  6
Continuous
 62
     7
370
    25
100
AcDbLine
 10
21.1317308965
 20
96.2440552885
 30
0.0
 11
54.6317308965
 21
96.2440552885
 31
0.0
  0
LINE
  5
FA
330
1F
100
AcDbEntity
  8
0
  6
Continuous
 62
     7
370
    25
100
AcDbLine
 10
54.6317308965
 20
98.351750443
 30
0.0
 11
68.6317308965
 21
98.351750443
 31
0.0
  0
LINE
  5
FB
330
1F
100
AcDbEntity
  8
0
  6
Continuous
 62
     7
370
    25
100
AcDbLine
 10
54.6317308965
 20
119.1363601339
 30
0.0
 11
54.6317308965
 21
98.351750443
 31
0.0
  0
LINE
  5
FC
330
1F
100
AcDbEntity
  8
0
  6
Continuous
 62
     7
370
    25
100
AcDbLine
 10
54.6317308965
 20
119.1363601339
 30
0.0
 11
68.6317308965
 21
119.1363601339
 31
0.0
  0
LINE
  5
FD
330
1F
100
AcDbEntity
  8
0
  6
Continuous
 62
     7
370
    25
100
AcDbLine
 10
68.6317308965
 20
98.351750443
 30
0.0
 11
68.6317308965
 21
119.1363601339
 31
0.0
  0
LINE
  5
FE
330
1F
100
AcDbEntity
  8
0
  6
Continuous
 62
     7
370
    25
100
AcDbLine
 10
54.6317308965
 20
129.5286649793
 30
0.0
 11
54.6317308965
 21
119.1363601339
 31
0.0
  0
LINE
  5
FF
330
1F
100
AcDbEntity
  8
0
  6
Continuous
 62
     7
370
    25
100
AcDbLine
 10
54.6317308965
 20
129.5286649793
 30
0.0
 11
68.6317308965
 21
129.5286649793
 31
0.0
  0
LINE
  5
100
330
1F
100
AcDbEntity
  8
0
  6
Continuous
 62
     7
370
    25
100
AcDbLine
 10
68.6317308965
 20
119.1363601339
 30
0.0
 11
68.6317308965
 21
129.5286649793
 31
0.0
  0
LINE
  5
101
330
1F
100
AcDbEntity
  8
0
  6
Continuous
 62
     7
370
    25
100
AcDbLine
 10
54.6317308965
 20
87.9594455976
 30
0.0
 11
68.6317308965
 21
87.9594455976
 31
0.0
  0
LINE
  5
102
330
1F
100
AcDbEntity
  8
0
  6
Continuous
 62
     7
370
    25
100
AcDbLine
 10
54.6317308965
 20
98.351750443
 30
0.0
 11
54.6317308965
 21
87.9594455976
 31
0.0
  0
LINE
  5
103
330
1F
100
AcDbEntity
  8
0
  6
Continuous
 62
     7
370
    25
100
AcDbLine
 10
68.6317308965
 20
87.9594455976
 30
0.0
 11
68.6317308965
 21
98.351750443
 31
0.0
  0
LINE
  5
104
330
1F
100
AcDbEntity
  8
0
  6
Continuous
 62
     7
370
    25
100
AcDbLine
 10
86.4317308965
 20
121.9640552885
 30
0.0
 11
86.4317308965
 21
95.5240552885
 31
0.0
  0
LINE
  5
105
330
1F
100
AcDbEntity
  8
0
  6
Continuous
 62
     7
370
    25
100
AcDbLine
 10
86.6317308965
 20
121.9640552885
 30
0.0
 11
86.6317308965
 21
95.5240552885
 31
0.0
  0
LINE
  5
106
330
1F
100
AcDbEntity
  8
0
  6
Continuous
 62
     7
370
    25
100
AcDbLine
 10
85.4317308965
 20
120.2320044809
 30
0.0
 11
85.4317308965
 21
97.256106096
 31
0.0
  0
LINE
  5
107
330
1F
100
AcDbEntity
  8
0
  6
Continuous
 62
     7
370
    25
100
AcDbLine
 10
84.4317308965
 20
121.9640552885
 30
0.0
 11
84.4317308965
 21
95.5240552885
 31
0.0
  0
LINE
  5
108
330
1F
100
AcDbEntity
  8
0
  6
Continuous
 62
     7
370
    25
100
AcDbLine
 10
83.4317308965
 20
120.2320044809
 30
0.0
 11
83.4317308965
 21
97.256106096
 31
0.0
  0
LINE
  5
109
330
1F
100
AcDbEntity
  8
0
  6
Continuous
 62
     7
370
    25
100
AcDbLine
 10
82.4317308965
 20
121.9640552885
 30
0.0
 11
82.4317308965
 21
95.5240552885
 31
0.0
  0
LINE
  5
10A
330
1F
100
AcDbEntity
  8
0
  6
Continuous
 62
     7
370
    25
100
AcDbLine
 10
81.4317308965
 20
120.2320044809
 30
0.0
 11
81.4317308965
 21
97.256106096
 31
0.0
  0
LINE
  5
10B
330
1F
100
AcDbEntity
  8
0
  6
Continuous
 62
     7
370
    25
100
AcDbLine
 10
80.4317308965
 20
121.9640552885
 30
0.0
 11
80.4317308965
 21
95.5240552885
 31
0.0
  0
LINE
  5
10C
330
1F
100
AcDbEntity
  8
0
  6
Continuous
 62
     7
370
    25
100
AcDbLine
 10
21.1317308965
 20
121.2440552885
 30
0.0
 11
21.1317308965
 21
96.2440552885
 31
0.0
  0
LINE
  5
10D
330
1F
100
AcDbEntity
  8
0
  6
Continuous
 62
     7
370
    25
100
AcDbLine
 10
231.6313063847
 20
48.1296787281
 30
0.0
 11
207.943229215
 21
61.8045146012
 31
0.0
  0
LINE
  5
10E
330
1F
100
AcDbEntity
  8
0
  6
Continuous
 62
     7
370
    25
100
AcDbLine
 10
195.444245057
 20
40.1532930416
 30
0.0
 11
219.1323222268
 21
26.4784571686
 31
0.0
  0
LINE
  5
10F
330
1F
100
AcDbEntity
  8
0
  6
Continuous
 62
     7
370
    25
100
AcDbLine
 10
250.2346320831
 20
38.2215692665
 30
0.0
 11
248.0092313037
 21
39.5062657909
 31
0.0
  0
LINE
  5
110
330
1F
100
AcDbEntity
  8
0
  6
Continuous
 62
     7
370
    25
100
AcDbLine
 10
236.2184282586
 20
15.7834962411
 30
0.0
 11
237.0157064376
 21
15.3232373452
 31
0.0
  0
LINE
  5
111
330
1F
100
AcDbEntity
  8
0
  6
Continuous
 62
     7
370
    25
100
AcDbLine
 10
254.6186941265
 20
35.6907041199
 30
0.0
 11
254.4772727702
 21
35.7723449311
 31
0.0
  0
LINE
  5
112
330
1F
100
AcDbEntity
  8
0
  6
Continuous
 62
     7
370
    25
100
AcDbLine
 10
241.2583471248
 20
12.8740130097
 30
0.0
 11
241.399768481
 21
12.7923721985
 31
0.0
  0
LWPOLYLINE
  5
113
330
1F
100
AcDbEntity
  8
0
  6
Continuous
 62
     7
370
    25
100
AcDbPolyline
 90
       81
 70
   128
 43
0.0
 10
194.9762227147
 20
47.1009652902
 10
194.9969305698
 20
47.7215376909
 10
195.0589264643
 20
48.362192837
 10
195.1618281729
 20
49.0189808764
 10
195.3050012724
 20
49.6878524925
 10
195.4875630528
 20
50.3646838694
 10
195.7083879603
 20
51.0453021166
 10
195.9661145358
 20
51.7255109961
 10
196.2591538092
 20
52.4011167942
 10
196.5856990961
 20
53.0679541764
 10
196.943737136
 20
53.7219118684
 10
197.3310605055
 20
54.3589580037
 10
197.7452812271
 20
54.9751649809
 10
198.1838454924
 20
55.5667336793
 10
198.6440494069
 20
56.1300168809
 10
199.1230556603
 20
56.6615417576
 10
199.6179110199
 20
57.1580312818
 10
200.1255645377
 20
57.6164244304
 10
200.6428863611
 20
58.0338950573
 10
201.166687029
 20
58.4078693171
 10
201.693737136
 20
58.7360415343
 10
202.220787243
 20
59.016388418
 10
202.7445879109
 20
59.2471815364
 10
203.2619097343
 20
59.4269979732
 10
203.7695632521
 20
59.5547291003
 10
204.2644186117
 20
59.6295874128
 10
204.7434248651
 20
59.6511113844
 10
205.2036287796
 20
59.6191683124
 10
205.6421930449
 20
59.5339551368
 10
206.0564137665
 20
59.3959972249
 10
206.443737136
 20
59.2061451332
 10
206.801775176
 20
58.965569363
 10
207.1283204628
 20
58.6757531439
 10
207.4213597362
 20
58.3384832893
 10
207.6790863117
 20
57.9558391799
 10
207.8999112192
 20
57.530179944
 10
208.0824729997
 20
57.0641299122
 10
208.2256460991
 20
56.5605624381
 10
208.3285478077
 20
56.0225821825
 10
208.3905437022
 20
55.4535059727
 10
208.4112515573
 20
54.8568423526
 10
208.3905437022
 20
54.2362699519
 10
208.3285478077
 20
53.5956148058
 10
208.2256460991
 20
52.9388267664
 10
208.0824729997
 20
52.2699551502
 10
207.8999112192
 20
51.5931237734
 10
207.6790863117
 20
50.9125055262
 10
207.4213597362
 20
50.2322966467
 10
207.1283204628
 20
49.5566908486
 10
206.801775176
 20
48.8898534664
 10
206.443737136
 20
48.2358957744
 10
206.0564137665
 20
47.5988496391
 10
205.6421930449
 20
46.9826426619
 10
205.2036287796
 20
46.3910739635
 10
204.7434248651
 20
45.8277907619
 10
204.2644186117
 20
45.2962658852
 10
203.7695632521
 20
44.799776361
 10
203.2619097343
 20
44.3413832124
 10
202.7445879109
 20
43.9239125855
 10
202.220787243
 20
43.5499383257
 10
201.693737136
 20
43.2217661085
 10
201.166687029
 20
42.9414192248
 10
200.6428863611
 20
42.7106261064
 10
200.1255645377
 20
42.5308096696
 10
199.6179110199
 20
42.4030785425
 10
199.1230556603
 20
42.32822023
 10
198.6440494069
 20
42.3066962584
 10
198.1838454924
 20
42.3386393304
 10
197.7452812271
 20
42.423852506
 10
197.3310605055
 20
42.5618104179
 10
196.943737136
 20
42.7516625096
 10
196.5856990961
 20
42.9922382798
 10
196.2591538092
 20
43.2820544989
 10
195.9661145358
 20
43.6193243535
 10
195.7083879603
 20
44.0019684629
 10
195.4875630528
 20
44.4276276988
 10
195.3050012724
 20
44.8936777305
 10
195.1618281729
 20
45.3972452047
 10
195.0589264643
 20
45.9352254603
 10
194.9969305698
 20
46.5043016701
 10
194.9762227147
 20
47.1009652902
  0
LWPOLYLINE
  5
114
330
1F
100
AcDbEntity
  8
0
  6
Continuous
 62
     7
370
    25
100
AcDbPolyline
 90
       92
 70
   128
 43
0.0
 10
192.8549023712
 20
45.8763531225
 10
192.8759629076
 20
46.5926871747
 10
192.9390441538
 20
47.3299235467
 10
193.0438454989
 20
48.0845489714
 10
193.1898675169
 20
48.8529673151
 10
193.3764143462
 20
49.6315167144
 10
193.6025970063
 20
50.4164870268
 10
193.8673376337
 20
51.2041375114
 10
194.169374619
 20
51.9907146549
 10
194.5072686182
 20
52.772470059
 10
194.8794094126
 20
53.5456783031
 10
195.2840235818
 20
54.306654698
 10
195.7191829551
 20
55.0517728445
 10
196.1828137998
 20
55.7774819153
 10
196.6727067039
 20
56.4803235763
 10
197.1865271046
 20
57.1569484667
 10
197.7218264137
 20
57.804132161
 10
198.2760536861
 20
58.4187905341
 10
198.8465677766
 20
58.9979944588
 10
199.4306499257
 20
59.5389837648
 10
200.0255167159
 20
60.0391803917
 10
200.6283333361
 20
60.4962006746
 10
201.2362270907
 20
60.9078667039
 10
201.8463010889
 20
61.2722167034
 10
202.4556480504
 20
61.5875143795
 10
203.0613641595
 20
61.8522571951
 10
203.660562903
 20
62.0651835303
 10
204.250388826
 20
62.2252786939
 10
204.8280311394
 20
62.3317797597
 10
205.3907371145
 20
62.3841792016
 10
205.9358252011
 20
62.3822273124
 10
206.4606978063
 20
62.3259333937
 10
206.962853673
 20
62.2155657116
 10
207.4398997999
 20
62.0516502185
 10
207.8895628449
 20
61.8349680464
 10
208.3096999588
 20
61.5665517844
 10
208.698308997
 20
61.2476805582
 10
209.0535380604
 20
60.8798739345
 10
209.3736943207
 20
60.4648846794
 10
209.6572520877
 20
60.0046904055
 10
209.9028600793
 20
59.5014841483
 10
210.1093478617
 20
58.9576639147
 10
210.2757314265
 20
58.3758212557
 10
210.4012178803
 20
57.7587289166
 10
210.485209223
 20
57.1093276234
 10
210.5273051976
 20
56.430712069
 10
210.5273051976
 20
55.7261161655
 10
210.485209223
 20
54.9988976334
 10
210.4012178803
 20
54.2525220001
 10
210.2757314265
 20
53.4905460853
 10
210.1093478617
 20
52.7166010514
 10
209.9028600793
 20
51.9343750988
 10
209.6572520877
 20
51.1475958905
 10
209.3736943207
 20
50.3600127876
 10
209.0535380604
 20
49.5753789823
 10
208.698308997
 20
48.7974336121
 10
208.3096999588
 20
48.0298839409
 10
207.8895628449
 20
47.2763876923
 10
207.4398997999
 20
46.5405356192
 10
206.962853673
 20
45.8258343919
 10
206.4606978063
 20
45.135689887
 10
205.9358252011
 20
44.4733909576
 10
205.3907371145
 20
43.8420937595
 10
204.8280311394
 20
43.2448067115
 10
204.250388826
 20
42.6843761583
 10
203.660562903
 20
42.1634728067
 10
203.0613641595
 20
41.6845789984
 10
202.4556480504
 20
41.2499768805
 10
201.8463010889
 20
40.86173753
 10
201.2362270907
 20
40.5217110842
 10
200.6283333361
 20
40.231517924
 10
200.0255167159
 20
39.992540952
 10
199.4306499257
 20
39.8059190021
 10
198.8465677766
 20
39.6725414131
 10
198.2760536861
 20
39.5930437898
 10
197.7218264137
 20
39.5678049747
 10
197.1865271046
 20
39.5969452422
 10
196.6727067039
 20
39.6803257256
 10
196.1828137998
 20
39.817549079
 10
195.7191829551
 20
40.0079613706
 10
195.2840235818
 20
40.2506551991
 10
194.8794094126
 20
40.5444740179
 10
194.5072686182
 20
40.8880176466
 10
194.169374619
 20
41.2796489432
 10
193.8673376337
 20
41.7175016063
 10
193.6025970063
 20
42.1994890686
 10
193.3764143462
 20
42.7233144404
 10
193.1898675169
 20
43.2864814551
 10
193.0438454989
 20
43.8863063655
 10
192.9390441538
 20
44.5199307327
 10
192.8759629076
 20
45.1843350481
 10
192.8549023712
 20
45.8763531225
  0
LWPOLYLINE
  5
115
330
1F
100
AcDbEntity
  8
0
  6
Continuous
 62
     7
370
    25
100
AcDbPolyline
 90
       47
 70
   128
 43
0.0
 10
231.6313063847
 20
48.1296787281
 10
231.9977771285
 20
47.8917159113
 10
232.3863861667
 20
47.5728446852
 10
232.7416152301
 20
47.2050380615
 10
233.0617714905
 20
46.7900488063
 10
233.3453292574
 20
46.3298545325
 10
233.590937249
 20
45.8266482753
 10
233.7974250314
 20
45.2828280416
 10
233.9638085963
 20
44.7009853826
 10
234.0892950501
 20
44.0838930435
 10
234.1732863928
 20
43.4344917503
 10
234.2153823674
 20
42.7558761959
 10
234.2153823674
 20
42.0512802925
 10
234.1732863928
 20
41.3240617604
 10
234.0892950501
 20
40.577686127
 10
233.9638085963
 20
39.8157102123
 10
233.7974250314
 20
39.0417651783
 10
233.590937249
 20
38.2595392258
 10
233.3453292574
 20
37.4727600174
 10
233.0617714905
 20
36.6851769146
 10
232.7416152301
 20
35.9005431093
 10
232.3863861667
 20
35.1225977391
 10
231.9977771285
 20
34.3550480678
 10
231.5776400146
 20
33.6015518193
 10
231.1279769696
 20
32.8656997462
 10
230.6509308428
 20
32.1509985189
 10
230.1487749761
 20
31.460854014
 10
229.6239023709
 20
30.7985550846
 10
229.0788142843
 20
30.1672578865
 10
228.5161083091
 20
29.5699708385
 10
227.9384659957
 20
29.0095402852
 10
227.3486400727
 20
28.4886369337
 10
226.7494413292
 20
28.0097431254
 10
226.1437252202
 20
27.5751410075
 10
225.5343782587
 20
27.186901657
 10
224.9243042604
 20
26.8468752112
 10
224.3164105059
 20
26.556682051
 10
223.7135938856
 20
26.3177050789
 10
223.1187270954
 20
26.1310831291
 10
222.5346449463
 20
25.9977055401
 10
221.9641308558
 20
25.9182079168
 10
221.4099035834
 20
25.8929691017
 10
220.8746042744
 20
25.9221093692
 10
220.3607838737
 20
26.0054898526
 10
219.8708909696
 20
26.142713206
 10
219.4072601248
 20
26.3331254976
 10
219.1323222268
 20
26.4784571686
  0
ARC
  5
116
330
1F
100
AcDbEntity
  8
0
  6
Continuous
 62
     7
370
    25
100
AcDbCircle
 10
216.8083497905
 20
42.253423663
 30
0.0
 40
14.79916192294833
100
AcDbArc
 50
124.6153368884
 51
175.3900396443
  0
ARC
  5
117
330
1F
100
AcDbEntity
  8
0
  6
Continuous
 62
     7
370
    25
100
AcDbCircle
 10
217.1308999324
 20
42.0672194296
 30
0.0
 40
13.90156200804461
100
AcDbArc
 50
130.0839756431
 51
169.9214008896
  0
LINE
  5
118
330
1F
100
AcDbEntity
  8
0
  6
Continuous
 62
     7
370
    25
100
AcDbLine
 10
225.3818143058
 20
20.3325858767
 30
0.0
 11
212.6538922444
 21
21.4706539061
 31
0.0
  0
LINE
  5
119
330
1F
100
AcDbEntity
  8
0
  6
Continuous
 62
     7
370
    25
100
AcDbLine
 10
212.6538922444
 20
21.4706539061
 30
0.0
 11
212.6538922444
 21
30.218375191
 31
0.0
  0
LINE
  5
11A
330
1F
100
AcDbEntity
  8
0
  6
Continuous
 62
     7
370
    25
100
AcDbLine
 10
223.9882236393
 20
52.5419364795
 30
0.0
 11
225.3818143058
 21
54.27555002
 31
0.0
  0
LINE
  5
11B
330
1F
100
AcDbEntity
  8
0
  6
Continuous
 62
     7
370
    25
100
AcDbLine
 10
225.3818143058
 20
54.27555002
 30
0.0
 11
238.1097363671
 21
53.1374819906
 31
0.0
  0
LINE
  5
11C
330
1F
100
AcDbEntity
  8
0
  6
Continuous
 62
     7
370
    25
100
AcDbLine
 10
238.1097363671
 20
53.1374819906
 30
0.0
 11
238.1097363671
 21
36.1659999189
 31
0.0
  0
LINE
  5
11D
330
1F
100
AcDbEntity
  8
0
  6
Continuous
 62
     7
370
    25
100
AcDbLine
 10
238.1097363671
 20
36.1659999189
 30
0.0
 11
225.3818143058
 21
20.3325858767
 31
0.0
  0
LINE
  5
11E
330
1F
100
AcDbEntity
  8
0
  6
Continuous
 62
     7
370
    25
100
AcDbLine
 10
225.3818143058
 20
20.3325858767
 30
0.0
 11
235.2813092424
 21
14.6177290939
 31
0.0
  0
LINE
  5
11F
330
1F
100
AcDbEntity
  8
0
  6
Continuous
 62
     7
370
    25
100
AcDbLine
 10
238.1097363671
 20
36.1659999189
 30
0.0
 11
248.0092313037
 21
30.4511431362
 31
0.0
  0
LINE
  5
120
330
1F
100
AcDbEntity
  8
0
  6
Continuous
 62
     7
370
    25
100
AcDbLine
 10
235.2813092424
 20
14.6177290939
 30
0.0
 11
248.0092313037
 21
30.4511431362
 31
0.0
  0
LINE
  5
121
330
1F
100
AcDbEntity
  8
0
  6
Continuous
 62
     7
370
    25
100
AcDbLine
 10
238.1097363671
 20
53.1374819906
 30
0.0
 11
248.0092313037
 21
47.4226252078
 31
0.0
  0
LINE
  5
122
330
1F
100
AcDbEntity
  8
0
  6
Continuous
 62
     7
370
    25
100
AcDbLine
 10
248.0092313037
 20
30.4511431362
 30
0.0
 11
248.0092313037
 21
47.4226252078
 31
0.0
  0
LINE
  5
123
330
1F
100
AcDbEntity
  8
0
  6
Continuous
 62
     7
370
    25
100
AcDbLine
 10
212.6538922444
 20
21.4706539061
 30
0.0
 11
222.553387181
 21
15.7557971234
 31
0.0
  0
LINE
  5
124
330
1F
100
AcDbEntity
  8
0
  6
Continuous
 62
     7
370
    25
100
AcDbLine
 10
222.553387181
 20
15.7557971234
 30
0.0
 11
235.2813092424
 21
14.6177290939
 31
0.0
  0
LWPOLYLINE
  5
125
330
1F
100
AcDbEntity
  8
0
  6
Continuous
 62
     7
370
    25
100
AcDbPolyline
 90
       49
 70
   128
 43
0.0
 10
250.2346320831
 20
38.2215692665
 10
250.5580972831
 20
38.0155969519
 10
250.9614359668
 20
37.6975351726
 10
251.3320091025
 20
37.3306791022
 10
251.6681616205
 20
36.9166672091
 10
251.9683921823
 20
36.4573485709
 10
252.2313598851
 20
35.954774616
 10
252.4558902514
 20
35.4111899619
 10
252.6409804741
 20
34.8290223894
 10
252.7858038952
 20
34.2108720003
 10
252.8897136984
 20
33.5594996043
 10
252.952245797
 20
32.8778143887
 10
252.9731209077
 20
32.168860925
 10
252.952245797
 20
31.4358055716
 10
252.8897136984
 20
30.6819223316
 10
252.7858038952
 20
29.9105782306
 10
252.6409804741
 20
29.1252182786
 10
252.4558902514
 20
28.3293500838
 10
252.2313598851
 20
27.5265281867
 10
251.9683921823
 20
26.7203381848
 10
251.6681616205
 20
25.9143807184
 10
251.3320091025
 20
25.1122553892
 10
250.9614359668
 20
24.3175446835
 10
250.5580972831
 20
23.5337979724
 10
250.1237944598
 20
22.7645156589
 10
249.6604671989
 20
22.0131335446
 10
249.1701848323
 20
21.2830074843
 10
248.65513708
 20
20.5773983983
 10
248.1176242704
 20
19.8994577082
 10
247.5600470662
 20
19.2522132615
 10
246.9848957425
 20
18.638555809
 10
246.3947390648
 20
18.0612260941
 10
245.7922128159
 20
17.5228026112
 10
245.1800080245
 20
17.0256900904
 10
244.5608589458
 20
16.5721087569
 10
243.9375308497
 20
16.164084415
 10
243.312807671
 20
15.8034394004
 10
242.689479575
 20
15.4917844415
 10
242.0703304962
 20
15.2305114648
 10
241.4581257048
 20
15.0207873788
 10
240.855599456
 20
14.8635488624
 10
240.2654427782
 20
14.7594981808
 10
239.6902914545
 20
14.7091000497
 10
239.1327142503
 20
14.7125795594
 10
238.5952014407
 20
14.7699211694
 10
238.0801536885
 20
14.8808687784
 10
237.5898713219
 20
15.0449268672
 10
237.1265440609
 20
15.2613627127
 10
237.0157064376
 20
15.3232373452
  0
LWPOLYLINE
  5
126
330
1F
100
AcDbEntity
  8
0
  6
Continuous
 62
     7
370
    25
100
AcDbPolyline
 90
       52
 70
   128
 43
0.0
 10
250.903817817
 20
37.7476769126
 10
251.0746807613
 20
37.6834716327
 10
251.5380080222
 20
37.4670357872
 10
251.9723108455
 20
37.19918884
 10
252.3756495292
 20
36.8811270607
 10
252.7462226648
 20
36.5142709904
 10
253.0823751829
 20
36.1002590973
 10
253.3826057447
 20
35.6409404591
 10
253.6455734475
 20
35.1383665042
 10
253.8701038138
 20
34.59478185
 10
254.0551940365
 20
34.0126142776
 10
254.2000174576
 20
33.3944638885
 10
254.3039272607
 20
32.7430914925
 10
254.3664593594
 20
32.0614062768
 10
254.38733447
 20
31.3524528132
 10
254.3664593594
 20
30.6193974598
 10
254.3039272607
 20
29.8655142198
 10
254.2000174576
 20
29.0941701188
 10
254.0551940365
 20
28.3088101668
 10
253.8701038138
 20
27.512941972
 10
253.6455734475
 20
26.7101200749
 10
253.3826057447
 20
25.903930073
 10
253.0823751829
 20
25.0979726066
 10
252.7462226648
 20
24.2958472773
 10
252.3756495292
 20
23.5011365717
 10
251.9723108455
 20
22.7173898606
 10
251.5380080222
 20
21.9481075471
 10
251.0746807613
 20
21.1967254327
 10
250.5843983946
 20
20.4665993725
 10
250.0693506424
 20
19.7609902865
 10
249.5318378328
 20
19.0830495963
 10
248.9742606286
 20
18.4358051496
 10
248.3991093049
 20
17.8221476972
 10
247.8089526271
 20
17.2448179823
 10
247.2064263783
 20
16.7063944994
 10
246.5942215869
 20
16.2092819786
 10
245.9750725082
 20
15.7557006451
 10
245.3517444121
 20
15.3476763032
 10
244.7270212334
 20
14.9870312886
 10
244.1036931373
 20
14.6753763296
 10
243.4845440586
 20
14.4141033529
 10
242.8723392672
 20
14.204379267
 10
242.2698130184
 20
14.0471407506
 10
241.6796563406
 20
13.943090069
 10
241.1045050169
 20
13.8926919379
 10
240.5469278127
 20
13.8961714475
 10
240.0094150031
 20
13.9535130576
 10
239.4943672509
 20
14.0644606665
 10
239.0040848842
 20
14.2285187554
 10
238.5407576233
 20
14.4449546009
 10
238.1064548
 20
14.712801548
 10
237.7607342661
 20
14.9807215873
  0
LWPOLYLINE
  5
127
330
1F
100
AcDbEntity
  8
0
  6
Continuous
 62
     7
370
    25
100
AcDbPolyline
 90
       52
 70
   128
 43
0.0
 10
252.3180313794
 20
36.9312688008
 10
252.4888943236
 20
36.8670635209
 10
252.9522215846
 20
36.6506276754
 10
253.3865244078
 20
36.3827807282
 10
253.7898630915
 20
36.0647189489
 10
254.1604362272
 20
35.6978628786
 10
254.4965887453
 20
35.2838509855
 10
254.796819307
 20
34.8245323473
 10
255.0597870099
 20
34.3219583924
 10
255.2843173762
 20
33.7783737382
 10
255.4694075988
 20
33.1962061657
 10
255.61423102
 20
32.5780557767
 10
255.7181408231
 20
31.9266833807
 10
255.7806729218
 20
31.244998165
 10
255.8015480324
 20
30.5360447014
 10
255.7806729218
 20
29.802989348
 10
255.7181408231
 20
29.049106108
 10
255.61423102
 20
28.277762007
 10
255.4694075988
 20
27.492402055
 10
255.2843173762
 20
26.6965338602
 10
255.0597870099
 20
25.8937119631
 10
254.796819307
 20
25.0875219612
 10
254.4965887453
 20
24.2815644948
 10
254.1604362272
 20
23.4794391655
 10
253.7898630915
 20
22.6847284599
 10
253.3865244078
 20
21.9009817488
 10
252.9522215846
 20
21.1316994353
 10
252.4888943236
 20
20.3803173209
 10
251.998611957
 20
19.6501912606
 10
251.4835642047
 20
18.9445821747
 10
250.9460513952
 20
18.2666414845
 10
250.388474191
 20
17.6193970378
 10
249.8133228673
 20
17.0057395854
 10
249.2231661895
 20
16.4284098704
 10
248.6206399407
 20
15.8899863876
 10
248.0084351493
 20
15.3928738668
 10
247.3892860705
 20
14.9392925332
 10
246.7659579745
 20
14.5312681913
 10
246.1412347958
 20
14.1706231768
 10
245.5179066997
 20
13.8589682178
 10
244.898757621
 20
13.5976952411
 10
244.2865528296
 20
13.3879711552
 10
243.6840265807
 20
13.2307326388
 10
243.093869903
 20
13.1266819572
 10
242.5187185793
 20
13.0762838261
 10
241.9611413751
 20
13.0797633357
 10
241.4236285655
 20
13.1371049458
 10
240.9085808132
 20
13.2480525547
 10
240.4182984466
 20
13.4121106436
 10
239.9549711857
 20
13.6285464891
 10
239.5206683624
 20
13.8963934362
 10
239.1749478285
 20
14.1643134754
  0
LWPOLYLINE
  5
128
330
1F
100
AcDbEntity
  8
0
  6
Continuous
 62
     7
370
    25
100
AcDbPolyline
 90
       52
 70
   128
 43
0.0
 10
253.7322449418
 20
36.114860689
 10
253.903107886
 20
36.050655409
 10
254.366435147
 20
35.8342195635
 10
254.8007379702
 20
35.5663726164
 10
255.2040766539
 20
35.2483108371
 10
255.5746497896
 20
34.8814547668
 10
255.9108023077
 20
34.4674428737
 10
256.2110328694
 20
34.0081242354
 10
256.4740005722
 20
33.5055502806
 10
256.6985309385
 20
32.9619656264
 10
256.8836211612
 20
32.3797980539
 10
257.0284445824
 20
31.7616476648
 10
257.1323543855
 20
31.1102752688
 10
257.1948864841
 20
30.4285900532
 10
257.2157615948
 20
29.7196365895
 10
257.1948864841
 20
28.9865812361
 10
257.1323543855
 20
28.2326979962
 10
257.0284445824
 20
27.4613538952
 10
256.8836211612
 20
26.6759939432
 10
256.6985309385
 20
25.8801257483
 10
256.4740005722
 20
25.0773038512
 10
256.2110328694
 20
24.2711138494
 10
255.9108023077
 20
23.4651563829
 10
255.5746497896
 20
22.6630310537
 10
255.2040766539
 20
21.8683203481
 10
254.8007379702
 20
21.0845736369
 10
254.366435147
 20
20.3152913234
 10
253.903107886
 20
19.5639092091
 10
253.4128255194
 20
18.8337831488
 10
252.8977777671
 20
18.1281740629
 10
252.3602649575
 20
17.4502333727
 10
251.8026877533
 20
16.802988926
 10
251.2275364296
 20
16.1893314736
 10
250.6373797519
 20
15.6120017586
 10
250.0348535031
 20
15.0735782757
 10
249.4226487117
 20
14.5764657549
 10
248.8034996329
 20
14.1228844214
 10
248.1801715369
 20
13.7148600795
 10
247.5554483581
 20
13.354215065
 10
246.9321202621
 20
13.042560106
 10
246.3129711833
 20
12.7812871293
 10
245.7007663919
 20
12.5715630434
 10
245.0982401431
 20
12.4143245269
 10
244.5080834653
 20
12.3102738454
 10
243.9329321417
 20
12.2598757142
 10
243.3753549374
 20
12.2633552239
 10
242.8378421279
 20
12.320696834
 10
242.3227943756
 20
12.4316444429
 10
241.832512009
 20
12.5957025317
 10
241.369184748
 20
12.8121383772
 10
240.9348819248
 20
13.0799853244
 10
240.5891613908
 20
13.3479053636
  0
LWPOLYLINE
  5
129
330
1F
100
AcDbEntity
  8
0
  6
Continuous
 62
     7
370
    25
100
AcDbPolyline
 90
       49
 70
   128
 43
0.0
 10
254.6186941265
 20
35.6907041199
 10
254.9421593264
 20
35.4847318052
 10
255.3454980101
 20
35.1666700259
 10
255.7160711458
 20
34.7998139556
 10
256.0522236639
 20
34.3858020625
 10
256.3524542256
 20
33.9264834242
 10
256.6154219285
 20
33.4239094694
 10
256.8399522948
 20
32.8803248152
 10
257.0250425174
 20
32.2981572427
 10
257.1698659386
 20
31.6800068536
 10
257.2737757417
 20
31.0286344577
 10
257.3363078404
 20
30.346949242
 10
257.357182951
 20
29.6379957784
 10
257.3363078404
 20
28.904940425
 10
257.2737757417
 20
28.151057185
 10
257.1698659386
 20
27.379713084
 10
257.0250425174
 20
26.594353132
 10
256.8399522948
 20
25.7984849372
 10
256.6154219285
 20
24.9956630401
 10
256.3524542256
 20
24.1894730382
 10
256.0522236639
 20
23.3835155718
 10
255.7160711458
 20
22.5813902425
 10
255.3454980101
 20
21.7866795369
 10
254.9421593264
 20
21.0029328258
 10
254.5078565032
 20
20.2336505123
 10
254.0445292422
 20
19.4822683979
 10
253.5542468756
 20
18.7521423376
 10
253.0391991234
 20
18.0465332517
 10
252.5016863138
 20
17.3685925615
 10
251.9441091096
 20
16.7213481148
 10
251.3689577859
 20
16.1076906624
 10
250.7788011081
 20
15.5303609474
 10
250.1762748593
 20
14.9919374646
 10
249.5640700679
 20
14.4948249438
 10
248.9449209891
 20
14.0412436102
 10
248.3215928931
 20
13.6332192683
 10
247.6968697144
 20
13.2725742538
 10
247.0735416183
 20
12.9609192948
 10
246.4543925396
 20
12.6996463181
 10
245.8421877482
 20
12.4899222322
 10
245.2396614993
 20
12.3326837157
 10
244.6495048216
 20
12.2286330342
 10
244.0743534979
 20
12.1782349031
 10
243.5167762937
 20
12.1817144127
 10
242.9792634841
 20
12.2390560228
 10
242.4642157319
 20
12.3500036317
 10
241.9739333652
 20
12.5140617205
 10
241.5106061043
 20
12.7304975661
 10
241.399768481
 20
12.7923721985
  0
LINE
  5
12A
330
1F
100
AcDbEntity
  8
0
  6
Continuous
 62
     7
370
    25
100
AcDbLine
 10
126.6123425481
 20
68.1462837307
 30
0.0
 11
126.6123425481
 21
67.9462837307
 31
0.0
  0
LINE
  5
12B
330
1F
100
AcDbEntity
  8
0
  6
Continuous
 62
     7
370
    25
100
AcDbLine
 10
153.0523425481
 20
67.9462837307
 30
0.0
 11
153.0523425481
 21
68.1462837307
 31
0.0
  0
LINE
  5
12C
330
1F
100
AcDbEntity
  8
0
  6
Continuous
 62
     7
370
    25
100
AcDbLine
 10
126.6123425481
 20
67.9462837307
 30
0.0
 11
128.3443933556
 21
66.9462837307
 31
0.0
  0
LINE
  5
12D
330
1F
100
AcDbEntity
  8
0
  6
Continuous
 62
     7
370
    25
100
AcDbLine
 10
151.3202917405
 20
66.9462837307
 30
0.0
 11
153.0523425481
 21
67.9462837307
 31
0.0
  0
LINE
  5
12E
330
1F
100
AcDbEntity
  8
0
  6
Continuous
 62
     7
370
    25
100
AcDbLine
 10
153.0523425481
 20
65.9462837307
 30
0.0
 11
151.3202917405
 21
66.9462837307
 31
0.0
  0
LINE
  5
12F
330
1F
100
AcDbEntity
  8
0
  6
Continuous
 62
     7
370
    25
100
AcDbLine
 10
128.3443933556
 20
66.9462837307
 30
0.0
 11
126.6123425481
 21
65.9462837307
 31
0.0
  0
LINE
  5
130
330
1F
100
AcDbEntity
  8
0
  6
Continuous
 62
     7
370
    25
100
AcDbLine
 10
126.6123425481
 20
65.9462837307
 30
0.0
 11
128.3443933556
 21
64.9462837307
 31
0.0
  0
LINE
  5
131
330
1F
100
AcDbEntity
  8
0
  6
Continuous
 62
     7
370
    25
100
AcDbLine
 10
151.3202917405
 20
64.9462837307
 30
0.0
 11
153.0523425481
 21
65.9462837307
 31
0.0
  0
LINE
  5
132
330
1F
100
AcDbEntity
  8
0
  6
Continuous
 62
     7
370
    25
100
AcDbLine
 10
153.0523425481
 20
63.9462837307
 30
0.0
 11
151.3202917405
 21
64.9462837307
 31
0.0
  0
LINE
  5
133
330
1F
100
AcDbEntity
  8
0
  6
Continuous
 62
     7
370
    25
100
AcDbLine
 10
128.3443933556
 20
64.9462837307
 30
0.0
 11
126.6123425481
 21
63.9462837307
 31
0.0
  0
LINE
  5
134
330
1F
100
AcDbEntity
  8
0
  6
Continuous
 62
     7
370
    25
100
AcDbLine
 10
126.6123425481
 20
63.9462837307
 30
0.0
 11
128.3443933556
 21
62.9462837307
 31
0.0
  0
LINE
  5
135
330
1F
100
AcDbEntity
  8
0
  6
Continuous
 62
     7
370
    25
100
AcDbLine
 10
151.3202917405
 20
62.9462837307
 30
0.0
 11
153.0523425481
 21
63.9462837307
 31
0.0
  0
LINE
  5
136
330
1F
100
AcDbEntity
  8
0
  6
Continuous
 62
     7
370
    25
100
AcDbLine
 10
153.0523425481
 20
61.9462837307
 30
0.0
 11
151.3202917405
 21
62.9462837307
 31
0.0
  0
LINE
  5
137
330
1F
100
AcDbEntity
  8
0
  6
Continuous
 62
     7
370
    25
100
AcDbLine
 10
128.3443933556
 20
62.9462837307
 30
0.0
 11
126.6123425481
 21
61.9462837307
 31
0.0
  0
LINE
  5
138
330
1F
100
AcDbEntity
  8
0
  6
Continuous
 62
     7
370
    25
100
AcDbLine
 10
126.6123425481
 20
61.9462837307
 30
0.0
 11
126.6123425481
 21
50.1462837307
 31
0.0
  0
LINE
  5
139
330
1F
100
AcDbEntity
  8
0
  6
Continuous
 62
     7
370
    25
100
AcDbLine
 10
153.0523425481
 20
50.1462837307
 30
0.0
 11
153.0523425481
 21
61.9462837307
 31
0.0
  0
LINE
  5
13A
330
1F
100
AcDbEntity
  8
0
  6
Continuous
 62
     7
370
    25
100
AcDbLine
 10
127.3323425481
 20
36.1462837307
 30
0.0
 11
127.3323425481
 21
2.6462837307
 31
0.0
  0
LINE
  5
13B
330
1F
100
AcDbEntity
  8
0
  6
Continuous
 62
     7
370
    25
100
AcDbLine
 10
152.3323425481
 20
2.6462837307
 30
0.0
 11
152.3323425481
 21
36.1462837307
 31
0.0
  0
LINE
  5
13C
330
1F
100
AcDbEntity
  8
0
  6
Continuous
 62
     7
370
    25
100
AcDbLine
 10
139.8323425481
 20
36.1462837307
 30
0.0
 11
139.8323425481
 21
50.1462837307
 31
0.0
  0
LINE
  5
13D
330
1F
100
AcDbEntity
  8
0
  6
Continuous
 62
     7
370
    25
100
AcDbLine
 10
121.8323425481
 20
36.1462837307
 30
0.0
 11
139.8323425481
 21
36.1462837307
 31
0.0
  0
LINE
  5
13E
330
1F
100
AcDbEntity
  8
0
  6
Continuous
 62
     7
370
    25
100
AcDbLine
 10
121.8323425481
 20
36.1462837307
 30
0.0
 11
121.8323425481
 21
50.1462837307
 31
0.0
  0
LINE
  5
13F
330
1F
100
AcDbEntity
  8
0
  6
Continuous
 62
     7
370
    25
100
AcDbLine
 10
139.8323425481
 20
50.1462837307
 30
0.0
 11
121.8323425481
 21
50.1462837307
 31
0.0
  0
LINE
  5
140
330
1F
100
AcDbEntity
  8
0
  6
Continuous
 62
     7
370
    25
100
AcDbLine
 10
157.8323425481
 20
36.1462837307
 30
0.0
 11
157.8323425481
 21
50.1462837307
 31
0.0
  0
LINE
  5
141
330
1F
100
AcDbEntity
  8
0
  6
Continuous
 62
     7
370
    25
100
AcDbLine
 10
139.8323425481
 20
36.1462837307
 30
0.0
 11
157.8323425481
 21
36.1462837307
 31
0.0
  0
LINE
  5
142
330
1F
100
AcDbEntity
  8
0
  6
Continuous
 62
     7
370
    25
100
AcDbLine
 10
157.8323425481
 20
50.1462837307
 30
0.0
 11
139.8323425481
 21
50.1462837307
 31
0.0
  0
LINE
  5
143
330
1F
100
AcDbEntity
  8
0
  6
Continuous
 62
     7
370
    25
100
AcDbLine
 10
126.6123425481
 20
67.9462837307
 30
0.0
 11
153.0523425481
 21
67.9462837307
 31
0.0
  0
LINE
  5
144
330
1F
100
AcDbEntity
  8
0
  6
Continuous
 62
     7
370
    25
100
AcDbLine
 10
126.6123425481
 20
68.1462837307
 30
0.0
 11
153.0523425481
 21
68.1462837307
 31
0.0
  0
LINE
  5
145
330
1F
100
AcDbEntity
  8
0
  6
Continuous
 62
     7
370
    25
100
AcDbLine
 10
128.3443933556
 20
66.9462837307
 30
0.0
 11
151.3202917405
 21
66.9462837307
 31
0.0
  0
LINE
  5
146
330
1F
100
AcDbEntity
  8
0
  6
Continuous
 62
     7
370
    25
100
AcDbLine
 10
126.6123425481
 20
65.9462837307
 30
0.0
 11
153.0523425481
 21
65.9462837307
 31
0.0
  0
LINE
  5
147
330
1F
100
AcDbEntity
  8
0
  6
Continuous
 62
     7
370
    25
100
AcDbLine
 10
128.3443933556
 20
64.9462837307
 30
0.0
 11
151.3202917405
 21
64.9462837307
 31
0.0
  0
LINE
  5
148
330
1F
100
AcDbEntity
  8
0
  6
Continuous
 62
     7
370
    25
100
AcDbLine
 10
126.6123425481
 20
63.9462837307
 30
0.0
 11
153.0523425481
 21
63.9462837307
 31
0.0
  0
LINE
  5
149
330
1F
100
AcDbEntity
  8
0
  6
Continuous
 62
     7
370
    25
100
AcDbLine
 10
128.3443933556
 20
62.9462837307
 30
0.0
 11
151.3202917405
 21
62.9462837307
 31
0.0
  0
LINE
  5
14A
330
1F
100
AcDbEntity
  8
0
  6
Continuous
 62
     7
370
    25
100
AcDbLine
 10
126.6123425481
 20
61.9462837307
 30
0.0
 11
153.0523425481
 21
61.9462837307
 31
0.0
  0
LINE
  5
14B
330
1F
100
AcDbEntity
  8
0
  6
Continuous
 62
     7
370
    25
100
AcDbLine
 10
127.3323425481
 20
2.6462837307
 30
0.0
 11
152.3323425481
 21
2.6462837307
 31
0.0
  0
ENDSEC
  0
SECTION
  2
OBJECTS
  0
DICTIONARY
  5
C
330
0
100
AcDbDictionary
281
     1
  3
ACAD_GROUP
350
D
  3
ACAD_LAYOUT
350
1A
  3
ACAD_MLINESTYLE
350
17
  3
ACAD_PLOTSETTINGS
350
19
  3
ACAD_PLOTSTYLENAME
350
E
  3
ACAD_SCALELIST
350
47
  3
DWGPROPS
350
14C
  0
DICTIONARY
  5
D
102
{ACAD_REACTORS
330
C
102
}
330
C
100
AcDbDictionary
281
     1
  0
DICTIONARY
  5
1A
102
{ACAD_REACTORS
330
C
102
}
330
C
100
AcDbDictionary
281
     1
  3
Layout1
350
1E
  3
Layout2
350
26
  3
Model
350
22
  0
DICTIONARY
  5
17
102
{ACAD_REACTORS
330
C
102
}
330
C
100
AcDbDictionary
281
     1
  3
Standard
350
18
  0
DICTIONARY
  5
19
102
{ACAD_REACTORS
330
C
102
}
330
C
100
AcDbDictionary
281
     1
  0
ACDBDICTIONARYWDFLT
  5
E
102
{ACAD_REACTORS
330
C
102
}
330
C
100
AcDbDictionary
281
     1
  3
Normal
350
F
100
AcDbDictionaryWithDefault
340
F
  0
DICTIONARY
  5
47
102
{ACAD_REACTORS
330
C
102
}
330
C
100
AcDbDictionary
281
     1
  3
A0
350
48
  3
A1
350
49
  3
A2
350
4A
  3
A3
350
4B
  3
A4
350
4C
  3
A5
350
4D
  3
A6
350
4E
  3
A7
350
4F
  3
A8
350
50
  3
A9
350
51
  3
B0
350
52
  3
B1
350
53
  3
B2
350
54
  3
B3
350
55
  3
B4
350
56
  3
B5
350
57
  3
B6
350
58
  3
B7
350
59
  3
B8
350
5A
  3
B9
350
5B
  3
C0
350
5C
  3
C1
350
5D
  3
C2
350
5E
  3
C3
350
5F
  3
C4
350
60
  3
C5
350
61
  3
C6
350
62
  3
C7
350
63
  3
C8
350
64
  3
C9
350
65
  3
D0
350
66
  3
D1
350
67
  3
D2
350
68
  0
XRECORD
  5
14C
102
{ACAD_REACTORS
330
C
102
}
330
C
100
AcDbXrecord
280
     1
  1
DWGPROPS COOKIE
  2

  3

  4

  6

  7

  8
b.kav
  9

300
=
301
=
302
=
303
=
304
=
305
=
306
=
307
=
308
=
309
=
 40
0.0
 41
2459935.584168981
 42
2459935.584169155
  1

 90
        0
  0
LAYOUT
  5
1E
102
{ACAD_REACTORS
330
1A
102
}
330
1A
100
AcDbPlotSettings
  1

  2
none_device
  4

  6

 40
0.0
 41
0.0
 42
0.0
 43
0.0
 44
0.0
 45
0.0
 46
0.0
 47
0.0
 48
0.0
 49
0.0
140
0.0
141
0.0
142
1.0
143
1.0
 70
   688
 72
     1
 73
     0
 74
     5
  7

 75
    16
147
1.0
148
0.0
149
0.0
100
AcDbLayout
  1
Layout1
 70
     1
 71
     1
 10
0.0
 20
0.0
 11
420.0
 21
297.0
 12
0.0
 22
0.0
 32
0.0
 14
1.0000000000E+20
 24
1.0000000000E+20
 34
1.0000000000E+20
 15
-1.0000000000E+20
 25
-1.0000000000E+20
 35
-1.0000000000E+20
146
0.0
 13
0.0
 23
0.0
 33
0.0
 16
1.0
 26
0.0
 36
0.0
 17
0.0
 27
1.0
 37
0.0
 76
     0
330
1B
  0
LAYOUT
  5
26
102
{ACAD_REACTORS
330
1A
102
}
330
1A
100
AcDbPlotSettings
  1

  2
none_device
  4

  6

 40
0.0
 41
0.0
 42
0.0
 43
0.0
 44
0.0
 45
0.0
 46
0.0
 47
0.0
 48
0.0
 49
0.0
140
0.0
141
0.0
142
1.0
143
1.0
 70
   688
 72
     1
 73
     0
 74
     5
  7

 75
    16
147
1.0
148
0.0
149
0.0
100
AcDbLayout
  1
Layout2
 70
     1
 71
     2
 10
0.0
 20
0.0
 11
0.0
 21
0.0
 12
0.0
 22
0.0
 32
0.0
 14
0.0
 24
0.0
 34
0.0
 15
0.0
 25
0.0
 35
0.0
146
0.0
 13
0.0
 23
0.0
 33
0.0
 16
1.0
 26
0.0
 36
0.0
 17
0.0
 27
1.0
 37
0.0
 76
     0
330
23
  0
LAYOUT
  5
22
102
{ACAD_REACTORS
330
1A
102
}
330
1A
100
AcDbPlotSettings
  1

  2
none_device
  4
Letter_(8.50_x_11.00_Inches)
  6

 40
6.35
 41
6.35
 42
6.35000508
 43
6.35000508
 44
215.9
 45
279.4
 46
0.0
 47
0.0
 48
0.0
 49
0.0
140
0.0
141
0.0
142
1.0
143
1.0
 70
  1712
 72
     1
 73
     0
 74
     0
  7

 75
     0
147
1.0
148
0.0
149
0.0
100
AcDbLayout
  1
Model
 70
     1
 71
     0
 10
0.0
 20
0.0
 11
279.4
 21
215.9
 12
0.0
 22
0.0
 32
0.0
 14
0.0
 24
0.0
 34
0.0
 15
279.4
 25
215.9
 35
0.0
146
0.0
 13
0.0
 23
0.0
 33
0.0
 16
1.0
 26
0.0
 36
0.0
 17
0.0
 27
1.0
 37
0.0
 76
     0
330
1F
331
29
  0
MLINESTYLE
  5
18
102
{ACAD_REACTORS
330
17
102
}
330
17
100
AcDbMlineStyle
  2
Standard
 70
     0
  3

 62
   256
 51
90.0
 52
90.0
 71
     2
 49
0.5
 62
   256
  6
BYLAYER
 49
-0.5
 62
   256
  6
BYLAYER
  0
ACDBPLACEHOLDER
  5
F
102
{ACAD_REACTORS
330
E
102
}
330
E
  0
SCALE
  5
48
102
{ACAD_REACTORS
330
47
102
}
330
47
100
AcDbScale
 70
     0
300
1:1
140
1.0
141
1.0
290
     1
  0
SCALE
  5
49
102
{ACAD_REACTORS
330
47
102
}
330
47
100
AcDbScale
 70
     0
300
1:2
140
1.0
141
2.0
290
     0
  0
SCALE
  5
4A
102
{ACAD_REACTORS
330
47
102
}
330
47
100
AcDbScale
 70
     0
300
1:4
140
1.0
141
4.0
290
     0
  0
SCALE
  5
4B
102
{ACAD_REACTORS
330
47
102
}
330
47
100
AcDbScale
 70
     0
300
1:5
140
1.0
141
5.0
290
     0
  0
SCALE
  5
4C
102
{ACAD_REACTORS
330
47
102
}
330
47
100
AcDbScale
 70
     0
300
1:8
140
1.0
141
8.0
290
     0
  0
SCALE
  5
4D
102
{ACAD_REACTORS
330
47
102
}
330
47
100
AcDbScale
 70
     0
300
1:10
140
1.0
141
10.0
290
     0
  0
SCALE
  5
4E
102
{ACAD_REACTORS
330
47
102
}
330
47
100
AcDbScale
 70
     0
300
1:16
140
1.0
141
16.0
290
     0
  0
SCALE
  5
4F
102
{ACAD_REACTORS
330
47
102
}
330
47
100
AcDbScale
 70
     0
300
1:20
140
1.0
141
20.0
290
     0
  0
SCALE
  5
50
102
{ACAD_REACTORS
330
47
102
}
330
47
100
AcDbScale
 70
     0
300
1:30
140
1.0
141
30.0
290
     0
  0
SCALE
  5
51
102
{ACAD_REACTORS
330
47
102
}
330
47
100
AcDbScale
 70
     0
300
1:40
140
1.0
141
40.0
290
     0
  0
SCALE
  5
52
102
{ACAD_REACTORS
330
47
102
}
330
47
100
AcDbScale
 70
     0
300
1:50
140
1.0
141
50.0
290
     0
  0
SCALE
  5
53
102
{ACAD_REACTORS
330
47
102
}
330
47
100
AcDbScale
 70
     0
300
1:100
140
1.0
141
100.0
290
     0
  0
SCALE
  5
54
102
{ACAD_REACTORS
330
47
102
}
330
47
100
AcDbScale
 70
     0
300
2:1
140
2.0
141
1.0
290
     0
  0
SCALE
  5
55
102
{ACAD_REACTORS
330
47
102
}
330
47
100
AcDbScale
 70
     0
300
4:1
140
4.0
141
1.0
290
     0
  0
SCALE
  5
56
102
{ACAD_REACTORS
330
47
102
}
330
47
100
AcDbScale
 70
     0
300
8:1
140
8.0
141
1.0
290
     0
  0
SCALE
  5
57
102
{ACAD_REACTORS
330
47
102
}
330
47
100
AcDbScale
 70
     0
300
10:1
140
10.0
141
1.0
290
     0
  0
SCALE
  5
58
102
{ACAD_REACTORS
330
47
102
}
330
47
100
AcDbScale
 70
     0
300
100:1
140
100.0
141
1.0
290
     0
  0
SCALE
  5
59
102
{ACAD_REACTORS
330
47
102
}
330
47
100
AcDbScale
 70
     0
300
1/128" = 1'-0"
140
0.0078125
141
12.0
290
     0
  0
SCALE
  5
5A
102
{ACAD_REACTORS
330
47
102
}
330
47
100
AcDbScale
 70
     0
300
1/64" = 1'-0"
140
0.015625
141
12.0
290
     0
  0
SCALE
  5
5B
102
{ACAD_REACTORS
330
47
102
}
330
47
100
AcDbScale
 70
     0
300
1/32" = 1'-0"
140
0.03125
141
12.0
290
     0
  0
SCALE
  5
5C
102
{ACAD_REACTORS
330
47
102
}
330
47
100
AcDbScale
 70
     0
300
1/16" = 1'-0"
140
0.0625
141
12.0
290
     0
  0
SCALE
  5
5D
102
{ACAD_REACTORS
330
47
102
}
330
47
100
AcDbScale
 70
     0
300
3/32" = 1'-0"
140
0.09375
141
12.0
290
     0
  0
SCALE
  5
5E
102
{ACAD_REACTORS
330
47
102
}
330
47
100
AcDbScale
 70
     0
300
1/8" = 1'-0"
140
0.125
141
12.0
290
     0
  0
SCALE
  5
5F
102
{ACAD_REACTORS
330
47
102
}
330
47
100
AcDbScale
 70
     0
300
3/16" = 1'-0"
140
0.1875
141
12.0
290
     0
  0
SCALE
  5
60
102
{ACAD_REACTORS
330
47
102
}
330
47
100
AcDbScale
 70
     0
300
1/4" = 1'-0"
140
0.25
141
12.0
290
     0
  0
SCALE
  5
61
102
{ACAD_REACTORS
330
47
102
}
330
47
100
AcDbScale
 70
     0
300
3/8" = 1'-0"
140
0.375
141
12.0
290
     0
  0
SCALE
  5
62
102
{ACAD_REACTORS
330
47
102
}
330
47
100
AcDbScale
 70
     0
300
1/2" = 1'-0"
140
0.5
141
12.0
290
     0
  0
SCALE
  5
63
102
{ACAD_REACTORS
330
47
102
}
330
47
100
AcDbScale
 70
     0
300
3/4" = 1'-0"
140
0.75
141
12.0
290
     0
  0
SCALE
  5
64
102
{ACAD_REACTORS
330
47
102
}
330
47
100
AcDbScale
 70
     0
300
1" = 1'-0"
140
1.0
141
12.0
290
     0
  0
SCALE
  5
65
102
{ACAD_REACTORS
330
47
102
}
330
47
100
AcDbScale
 70
     0
300
1-1/2" = 1'-0"
140
1.5
141
12.0
290
     0
  0
SCALE
  5
66
102
{ACAD_REACTORS
330
47
102
}
330
47
100
AcDbScale
 70
     0
300
3" = 1'-0"
140
3.0
141
12.0
290
     0
  0
SCALE
  5
67
102
{ACAD_REACTORS
330
47
102
}
330
47
100
AcDbScale
 70
     0
300
6" = 1'-0"
140
6.0
141
12.0
290
     0
  0
SCALE
  5
68
102
{ACAD_REACTORS
330
47
102
}
330
47
100
AcDbScale
 70
     0
300
1'-0" = 1'-0"
140
12.0
141
12.0
290
     0
  0
ENDSEC
  0
EOF
